  0
SECTION
  2
HEADER
  9
$ACADVER
  1
AC1015
  9
$ACADMAINTVER
 70
    20
  9
$DWGCODEPAGE
  3
ANSI_1252
  9
$INSBASE
 10
0.0
 20
0.0
 30
0.0
  9
$EXTMIN
 10
-65.93834424945896
 20
28.74322746552133
 30
0.0
  9
$EXTMAX
 10
40.45845111990836
 20
144.6035387924242
 30
0.0
  9
$LIMMIN
 10
0.0
 20
0.0
  9
$LIMMAX
 10
0.0
 20
0.0
  9
$ORTHOMODE
 70
     1
  9
$REGENMODE
 70
     1
  9
$FILLMODE
 70
     1
  9
$QTEXTMODE
 70
     0
  9
$MIRRTEXT
 70
     1
  9
$LTSCALE
 40
1.0
  9
$ATTMODE
 70
     1
  9
$TEXTSIZE
 40
0.0
  9
$TRACEWID
 40
0.05
  9
$TEXTSTYLE
  7
Standard
  9
$CLAYER
  8
0
  9
$CELTYPE
  6
Continuous
  9
$CECOLOR
 62
   256
  9
$CELTSCALE
 40
1.0
  9
$DISPSILH
 70
     0
  9
$DIMSCALE
 40
1.0
  9
$DIMASZ
 40
0.18
  9
$DIMEXO
 40
0.0625
  9
$DIMDLI
 40
0.38
  9
$DIMRND
 40
0.0
  9
$DIMDLE
 40
0.0
  9
$DIMEXE
 40
0.18
  9
$DIMTP
 40
0.0
  9
$DIMTM
 40
0.0
  9
$DIMTXT
 40
0.18
  9
$DIMCEN
 40
0.09
  9
$DIMTSZ
 40
0.0
  9
$DIMTOL
 70
     0
  9
$DIMLIM
 70
     0
  9
$DIMTIH
 70
     1
  9
$DIMTOH
 70
     1
  9
$DIMSE1
 70
     0
  9
$DIMSE2
 70
     0
  9
$DIMTAD
 70
     0
  9
$DIMZIN
 70
     0
  9
$DIMBLK
  1

  9
$DIMASO
 70
     1
  9
$DIMSHO
 70
     1
  9
$DIMPOST
  1

  9
$DIMAPOST
  1

  9
$DIMALT
 70
     0
  9
$DIMALTD
 70
     2
  9
$DIMALTF
 40
25.4
  9
$DIMLFAC
 40
1.0
  9
$DIMTOFL
 70
     0
  9
$DIMTVP
 40
0.0
  9
$DIMTIX
 70
     0
  9
$DIMSOXD
 70
     0
  9
$DIMSAH
 70
     0
  9
$DIMBLK1
  1

  9
$DIMBLK2
  1

  9
$DIMSTYLE
  2
Standard
  9
$DIMCLRD
 70
     0
  9
$DIMCLRE
 70
     0
  9
$DIMCLRT
 70
     0
  9
$DIMTFAC
 40
1.0
  9
$DIMGAP
 40
0.09
  9
$DIMJUST
 70
     0
  9
$DIMSD1
 70
     0
  9
$DIMSD2
 70
     0
  9
$DIMTOLJ
 70
     1
  9
$DIMTZIN
 70
     0
  9
$DIMALTZ
 70
     0
  9
$DIMALTTZ
 70
     0
  9
$DIMUPT
 70
     0
  9
$DIMDEC
 70
     4
  9
$DIMTDEC
 70
     4
  9
$DIMALTU
 70
     2
  9
$DIMALTTD
 70
     2
  9
$DIMTXSTY
  7
Standard
  9
$DIMAUNIT
 70
     0
  9
$DIMADEC
 70
     0
  9
$DIMALTRND
 40
0.0
  9
$DIMAZIN
 70
     0
  9
$DIMDSEP
 70
     0
  9
$DIMATFIT
 70
     3
  9
$DIMFRAC
 70
     0
  9
$DIMLDRBLK
  1

  9
$DIMLUNIT
 70
     2
  9
$DIMLWD
 70
     0
  9
$DIMLWE
 70
     0
  9
$DIMTMOVE
 70
     0
  9
$LUNITS
 70
     2
  9
$LUPREC
 70
     4
  9
$SKETCHINC
 40
0.1
  9
$FILLETRAD
 40
0.0
  9
$AUNITS
 70
     0
  9
$AUPREC
 70
     0
  9
$MENU
  1
acad
  9
$ELEVATION
 40
0.0
  9
$PELEVATION
 40
0.0
  9
$THICKNESS
 40
0.0
  9
$LIMCHECK
 70
     0
  9
$CHAMFERA
 40
0.0
  9
$CHAMFERB
 40
0.0
  9
$CHAMFERC
 40
0.0
  9
$CHAMFERD
 40
0.0
  9
$SKPOLY
 70
     0
  9
$TDCREATE
 40
2454375.451895856
  9
$TDUCREATE
 40
2454375.368562523
  9
$TDUPDATE
 40
2454375.494348114
  9
$TDUUPDATE
 40
2454375.411014780
  9
$TDINDWG
 40
0.0195012384
  9
$TDUSRTIMER
 40
0.0194954398
  9
$USRTIMER
 70
     1
  9
$ANGBASE
 50
0.0
  9
$ANGDIR
 70
     0
  9
$PDMODE
 70
     0
  9
$PDSIZE
 40
0.0
  9
$PLINEWID
 40
0.0
  9
$SPLFRAME
 70
     0
  9
$SPLINETYPE
 70
     6
  9
$SPLINESEGS
 70
     8
  9
$HANDSEED
  5
2B2
  9
$SURFTAB1
 70
     6
  9
$SURFTAB2
 70
     6
  9
$SURFTYPE
 70
     6
  9
$SURFU
 70
     6
  9
$SURFV
 70
     6
  9
$UCSBASE
  2

  9
$UCSNAME
  2

  9
$UCSORG
 10
0.0
 20
0.0
 30
0.0
  9
$UCSXDIR
 10
1.0
 20
0.0
 30
0.0
  9
$UCSYDIR
 10
0.0
 20
1.0
 30
0.0
  9
$UCSORTHOREF
  2

  9
$UCSORTHOVIEW
 70
     0
  9
$UCSORGTOP
 10
0.0
 20
0.0
 30
0.0
  9
$UCSORGBOTTOM
 10
0.0
 20
0.0
 30
0.0
  9
$UCSORGLEFT
 10
0.0
 20
0.0
 30
0.0
  9
$UCSORGRIGHT
 10
0.0
 20
0.0
 30
0.0
  9
$UCSORGFRONT
 10
0.0
 20
0.0
 30
0.0
  9
$UCSORGBACK
 10
0.0
 20
0.0
 30
0.0
  9
$PUCSBASE
  2

  9
$PUCSNAME
  2

  9
$PUCSORG
 10
0.0
 20
0.0
 30
0.0
  9
$PUCSXDIR
 10
1.0
 20
0.0
 30
0.0
  9
$PUCSYDIR
 10
0.0
 20
1.0
 30
0.0
  9
$PUCSORTHOREF
  2

  9
$PUCSORTHOVIEW
 70
     0
  9
$PUCSORGTOP
 10
0.0
 20
0.0
 30
0.0
  9
$PUCSORGBOTTOM
 10
0.0
 20
0.0
 30
0.0
  9
$PUCSORGLEFT
 10
0.0
 20
0.0
 30
0.0
  9
$PUCSORGRIGHT
 10
0.0
 20
0.0
 30
0.0
  9
$PUCSORGFRONT
 10
0.0
 20
0.0
 30
0.0
  9
$PUCSORGBACK
 10
0.0
 20
0.0
 30
0.0
  9
$USERI1
 70
     0
  9
$USERI2
 70
     0
  9
$USERI3
 70
     0
  9
$USERI4
 70
     0
  9
$USERI5
 70
     0
  9
$USERR1
 40
0.0
  9
$USERR2
 40
0.0
  9
$USERR3
 40
0.0
  9
$USERR4
 40
0.0
  9
$USERR5
 40
0.0
  9
$WORLDVIEW
 70
     1
  9
$SHADEDGE
 70
     3
  9
$SHADEDIF
 70
    70
  9
$TILEMODE
 70
     1
  9
$MAXACTVP
 70
    16
  9
$PINSBASE
 10
0.0
 20
0.0
 30
0.0
  9
$PLIMCHECK
 70
     0
  9
$PEXTMIN
 10
1.000000000000000E+20
 20
1.000000000000000E+20
 30
1.000000000000000E+20
  9
$PEXTMAX
 10
-1.000000000000000E+20
 20
-1.000000000000000E+20
 30
-1.000000000000000E+20
  9
$PLIMMIN
 10
0.0
 20
0.0
  9
$PLIMMAX
 10
12.0
 20
9.0
  9
$UNITMODE
 70
     0
  9
$VISRETAIN
 70
     0
  9
$PLINEGEN
 70
     1
  9
$PSLTSCALE
 70
     0
  9
$TREEDEPTH
 70
  3020
  9
$CMLSTYLE
  2
Standard
  9
$CMLJUST
 70
     0
  9
$CMLSCALE
 40
1.0
  9
$PROXYGRAPHICS
 70
     0
  9
$MEASUREMENT
 70
     0
  9
$CELWEIGHT
370
     0
  9
$ENDCAPS
280
     0
  9
$JOINSTYLE
280
     0
  9
$LWDISPLAY
290
     0
  9
$INSUNITS
 70
     5
  9
$HYPERLINKBASE
  1

  9
$STYLESHEET
  1

  9
$XEDIT
290
     1
  9
$CEPSNTYPE
380
     0
  9
$PSTYLEMODE
290
     1
  9
$FINGERPRINTGUID
  2

  9
$VERSIONGUID
  2
{F241147F-56F4-499D-8315-C5694A1B7E54}
  9
$EXTNAMES
290
     1
  9
$PSVPSCALE
 40
0.0
  9
$OLESTARTUP
290
     0
  0
ENDSEC
  0
SECTION
  2
CLASSES
  0
CLASS
  1
IMAGE
  2
AcDbRasterImage
  3
ISM
 90
    32895
280
     0
281
     1
  0
CLASS
  1
DICTIONARYVAR
  2
AcDbDictionaryVar
  3
ObjectDBX Classes
 90
        0
280
     0
281
     0
  0
CLASS
  1
RASTERVARIABLES
  2
AcDbRasterVariables
  3
ISM
 90
    32768
280
     0
281
     0
  0
CLASS
  1
IMAGEDEF
  2
AcDbRasterImageDef
  3
ISM
 90
    32768
280
     0
281
     0
  0
CLASS
  1
IMAGEDEF_REACTOR
  2
AcDbRasterImageDefReactor
  3
ISM
 90
    32769
280
     0
281
     0
  0
CLASS
  1
IDBUFFER
  2
AcDbIdBuffer
  3
ObjectDBX Classes
 90
    32768
280
     0
281
     0
  0
CLASS
  1
SPATIAL_FILTER
  2
AcDbSpatialFilter
  3
ObjectDBX Classes
 90
    32768
280
     0
281
     0
  0
CLASS
  1
SORTENTSTABLE
  2
AcDbSortentsTable
  3
ObjectDBX Classes
 90
    32768
280
     0
281
     0
  0
CLASS
  1
LAYER_INDEX
  2
AcDbLayerIndex
  3
ObjectDBX Classes
 90
    32768
280
     0
281
     0
  0
CLASS
  1
SPATIAL_INDEX
  2
AcDbSpatialIndex
  3
ObjectDBX Classes
 90
    32768
280
     0
281
     0
  0
CLASS
  1
OBJECT_PTR
  2
CAseDLPNTableRecord
  3
"ASE-LPNTableRecord"
 90
    32769
280
     0
281
     0
  0
CLASS
  1
LAYOUT
  2
AcDbLayout
  3
ObjectDBX Classes
 90
        0
280
     0
281
     0
  0
CLASS
  1
PLOTSETTINGS
  2
AcDbPlotSettings
  3
ObjectDBX Classes
 90
    32768
280
     0
281
     0
  0
CLASS
  1
ACDBDICTIONARYWDFLT
  2
AcDbDictionaryWithDefault
  3
ObjectDBX Classes
 90
        0
280
     0
281
     0
  0
CLASS
  1
ACDBPLACEHOLDER
  2
AcDbPlaceHolder
  3
ObjectDBX Classes
 90
        0
280
     0
281
     0
  0
CLASS
  1
VBA_PROJECT
  2
AcDbVbaProject
  3
acad
 90
    32768
280
     0
281
     0
  0
CLASS
  1
WIPEOUT
  2
AcDbWipeout
  3
"WipeOut|Product Desc: Object Enabler for WipeOut entity^I^I^I^I^I^I|Company: Autodesk, Inc.^I^I^I^I^I^I|WEB Address: www.autodesk.com"
 90
    32895
280
     0
281
     1
  0
CLASS
  1
WIPEOUTVARIABLES
  2
AcDbWipeoutVariables
  3
"WipeOut|Product Desc:     WipeOut Dbx Application|Company:          Autodesk, Inc.|WEB Address:      www.autodesk.com"
 90
        0
280
     0
281
     0
  0
CLASS
  1
RTEXT
  2
RText
  3
RText|AutoCAD Express Tool|expresstools@autodesk.com
 90
    32768
280
     0
281
     1
  0
CLASS
  1
ARCALIGNEDTEXT
  2
AcDbArcAlignedText
  3
ATEXT|AutoCAD Express Tool|expresstools@autodesk.com
 90
    32768
280
     0
281
     1
  0
ENDSEC
  0
SECTION
  2
TABLES
  0
TABLE
  2
VPORT
  5
7
330
0
100
AcDbSymbolTable
 70
     8
  0
VPORT
  5
2AA
330
7
100
AcDbSymbolTableRecord
100
AcDbViewportTableRecord
  2
*Active
 70
     0
 10
0.0
 20
0.0
 11
1.0
 21
1.0
 12
-8.791234240033787
 22
72.42610446024723
 13
0.0
 23
0.0
 14
1.0
 24
1.0
 15
0.0
 25
0.0
 16
0.0
 26
0.0
 36
1.0
 17
0.0
 27
0.0
 37
0.0
 40
144.3234430550146
 41
1.569570871261378
 42
50.0
 43
0.0
 44
0.0
 50
0.0
 51
0.0
 71
     0
 72
   100
 73
     1
 74
     1
 75
     0
 76
     0
 77
     0
 78
     0
281
     0
 65
     0
110
0.0
120
0.0
130
0.0
111
1.0
121
0.0
131
0.0
112
0.0
122
1.0
132
0.0
 79
     0
146
0.0
  0
ENDTAB
  0
TABLE
  2
LTYPE
  5
4
330
0
100
AcDbSymbolTable
 70
     1
  0
LTYPE
  5
11
330
4
100
AcDbSymbolTableRecord
100
AcDbLinetypeTableRecord
  2
ByBlock
 70
     0
  3

 72
    65
 73
     0
 40
0.0
  0
LTYPE
  5
12
330
4
100
AcDbSymbolTableRecord
100
AcDbLinetypeTableRecord
  2
ByLayer
 70
     0
  3

 72
    65
 73
     0
 40
0.0
  0
LTYPE
  5
13
330
4
100
AcDbSymbolTableRecord
100
AcDbLinetypeTableRecord
  2
Continuous
 70
     0
  3
Solid line
 72
    65
 73
     0
 40
0.0
  0
ENDTAB
  0
TABLE
  2
LAYER
  5
2
330
0
100
AcDbSymbolTable
 70
     3
  0
LAYER
  5
14
330
2
100
AcDbSymbolTableRecord
100
AcDbLayerTableRecord
  2
0
 70
     0
 62
     7
  6
Continuous
370
    -3
390
1D
  0
LAYER
  5
24
330
2
100
AcDbSymbolTableRecord
100
AcDbLayerTableRecord
  2
Livello 1
 70
     0
 62
     7
  6
Continuous
370
    -3
390
1F
  0
LAYER
  5
1D5
330
2
100
AcDbSymbolTableRecord
100
AcDbLayerTableRecord
  2
Defpoints
 70
     0
 62
     7
  6
Continuous
290
     0
370
    -3
390
1D
  0
ENDTAB
  0
TABLE
  2
STYLE
  5
3
330
0
100
AcDbSymbolTable
 70
     1
  0
STYLE
  5
17
330
3
100
AcDbSymbolTableRecord
100
AcDbTextStyleTableRecord
  2
Standard
 70
     0
 40
0.0
 41
1.0
 50
0.0
 71
     0
 42
0.0
  3
txt
  4

  0
ENDTAB
  0
TABLE
  2
VIEW
  5
5
330
0
100
AcDbSymbolTable
 70
     0
  0
ENDTAB
  0
TABLE
  2
UCS
  5
6
330
0
100
AcDbSymbolTable
 70
     0
  0
ENDTAB
  0
TABLE
  2
APPID
  5
8
330
0
100
AcDbSymbolTable
 70
     1
  0
APPID
  5
16
330
8
100
AcDbSymbolTableRecord
100
AcDbRegAppTableRecord
  2
ACAD
 70
     0
  0
ENDTAB
  0
TABLE
  2
DIMSTYLE
  5
9
330
0
100
AcDbSymbolTable
 70
     2
100
AcDbDimStyleTable
 71
     2
340
1CD
340
18
  0
DIMSTYLE
105
18
330
9
100
AcDbSymbolTableRecord
100
AcDbDimStyleTableRecord
  2
Standard
 70
     0
340
17
  0
DIMSTYLE
105
1CD
330
9
100
AcDbSymbolTableRecord
100
AcDbDimStyleTableRecord
  2
file dxf
 70
     0
  3
mm
 41
5.0
 42
5.0
140
3.0
147
2.0
176
     3
177
     3
178
     3
271
     0
272
     0
289
     0
340
17
  0
ENDTAB
  0
TABLE
  2
BLOCK_RECORD
  5
1
330
0
100
AcDbSymbolTable
 70
     2
  0
BLOCK_RECORD
  5
A
330
1
100
AcDbSymbolTableRecord
100
AcDbBlockTableRecord
  2
*MODEL_SPACE
340
20
  0
BLOCK_RECORD
  5
B
330
1
100
AcDbSymbolTableRecord
100
AcDbBlockTableRecord
  2
*PAPER_SPACE
340
21
  0
BLOCK_RECORD
  5
1D6
330
1
100
AcDbSymbolTableRecord
100
AcDbBlockTableRecord
  2
*D0
340
0
  0
BLOCK_RECORD
  5
1E4
330
1
100
AcDbSymbolTableRecord
100
AcDbBlockTableRecord
  2
*D1
340
0
  0
ENDTAB
  0
ENDSEC
  0
SECTION
  2
BLOCKS
  0
BLOCK
  5
D
330
A
100
AcDbEntity
  8
0
100
AcDbBlockBegin
  2
*MODEL_SPACE
 70
     0
 10
0.0
 20
0.0
 30
0.0
  3
*MODEL_SPACE
  1

  0
ENDBLK
  5
E
330
A
100
AcDbEntity
  8
0
100
AcDbBlockEnd
  0
BLOCK
  5
F
330
B
100
AcDbEntity
 67
     1
  8
0
100
AcDbBlockBegin
  2
*PAPER_SPACE
 70
     0
 10
0.0
 20
0.0
 30
0.0
  3
*PAPER_SPACE
  1

  0
ENDBLK
  5
10
330
B
100
AcDbEntity
 67
     1
  8
0
100
AcDbBlockEnd
  0
BLOCK
  5
1E1
330
1D6
100
AcDbEntity
  8
0
370
     0
100
AcDbBlockBegin
  2
*D0
 70
     1
 10
0.0
 20
0.0
 30
0.0
  3
*D0
  1

  0
LINE
  5
23B
330
1D6
100
AcDbEntity
  8
0
  6
Continuous
 62
     3
370
    -2
100
AcDbLine
 10
-52.20816845849525
 20
132.550808679207
 30
0.0
 11
-60.86834424945894
 21
132.550808679207
 31
0.0
  0
LINE
  5
23C
330
1D6
100
AcDbEntity
  8
0
  6
Continuous
 62
     3
370
    -2
100
AcDbLine
 10
-52.39539354164424
 20
69.29869584203311
 30
0.0
 11
-60.86834424945896
 21
69.29869584203311
 31
0.0
  0
LINE
  5
23D
330
1D6
100
AcDbEntity
  8
0
  6
Continuous
 62
     3
370
    -2
100
AcDbLine
 10
-60.68834424945895
 20
127.550808679207
 30
0.0
 11
-60.68834424945896
 21
104.4247522606201
 31
0.0
  0
LINE
  5
23E
330
1D6
100
AcDbEntity
  8
0
  6
Continuous
 62
     3
370
    -2
100
AcDbLine
 10
-60.68834424945896
 20
74.29869584203311
 30
0.0
 11
-60.68834424945896
 21
97.42475226062008
 31
0.0
  0
SOLID
  5
23F
330
1D6
100
AcDbEntity
  8
0
  6
Continuous
 62
     3
370
     0
100
AcDbTrace
 10
-61.5216775827923
 20
127.550808679207
 30
0.0
 11
-59.85501091612562
 21
127.550808679207
 31
0.0
 12
-60.68834424945895
 22
132.550808679207
 32
0.0
 13
-60.68834424945895
 23
132.550808679207
 33
0.0
  0
SOLID
  5
240
330
1D6
100
AcDbEntity
  8
0
  6
Continuous
 62
     3
370
     0
100
AcDbTrace
 10
-61.5216775827923
 20
74.29869584203311
 30
0.0
 11
-59.85501091612563
 21
74.29869584203311
 31
0.0
 12
-60.68834424945896
 22
69.29869584203311
 32
0.0
 13
-60.68834424945896
 23
69.29869584203311
 33
0.0
  0
MTEXT
  5
241
330
1D6
100
AcDbEntity
  8
0
  6
Continuous
 62
     3
370
     0
100
AcDbMText
 10
-60.68834424945897
 20
100.92475226062
 30
0.0
 40
3.0
 41
0.0
 71
     5
 72
     1
  1
\A1;63mm
 73
     1
 44
1.0
1001
ACAD
1000
MTEXTBEGIN
1070
    73
1070
     1
1070
    44
1040
1.0
1070
    74
1070
     0
1000
MTEXTEND
  0
POINT
  5
242
330
1D6
100
AcDbEntity
  8
Defpoints
  6
Continuous
 62
     0
370
     0
100
AcDbPoint
 10
-47.20816845849525
 20
132.550808679207
 30
0.0
  0
POINT
  5
243
330
1D6
100
AcDbEntity
  8
Defpoints
  6
Continuous
 62
     0
370
     0
100
AcDbPoint
 10
-47.39539354164423
 20
69.29869584203311
 30
0.0
  0
POINT
  5
244
330
1D6
100
AcDbEntity
  8
Defpoints
  6
Continuous
 62
     0
370
     0
100
AcDbPoint
 10
-60.68834424945896
 20
69.29869584203311
 30
0.0
  0
ENDBLK
  5
1E2
330
1D6
100
AcDbEntity
  8
0
370
     0
100
AcDbBlockEnd
  0
BLOCK
  5
1EF
330
1E4
100
AcDbEntity
  8
0
370
     0
100
AcDbBlockBegin
  2
*D1
 70
     1
 10
0.0
 20
0.0
 30
0.0
  3
*D1
  1

  0
LINE
  5
231
330
1E4
100
AcDbEntity
  8
0
  6
Continuous
 62
     3
370
    -2
100
AcDbLine
 10
-49.72091815301728
 20
64.78881847126328
 30
0.0
 11
-52.8338317021029
 21
59.43360192246401
 31
0.0
  0
LINE
  5
232
330
1E4
100
AcDbEntity
  8
0
  6
Continuous
 62
     3
370
    -2
100
AcDbLine
 10
3.076436668783863
 20
34.09844401432062
 30
0.0
 11
-0.0364768803017714
 21
28.74322746552133
 31
0.0
  0
LINE
  5
233
330
1E4
100
AcDbEntity
  8
0
  6
Continuous
 62
     3
370
    -2
100
AcDbLine
 10
-48.42063180336708
 20
57.07647090069237
 30
0.0
 11
-32.36582554730482
 21
47.74403336674303
 31
0.0
  0
LINE
  5
234
330
1E4
100
AcDbEntity
  8
0
  6
Continuous
 62
     3
370
    -2
100
AcDbLine
 10
-4.268758801032001
 20
31.41159583279374
 30
0.0
 11
-20.32356505709426
 21
40.74403336674303
 31
0.0
  0
SOLID
  5
235
330
1E4
100
AcDbEntity
  8
0
  6
Continuous
 62
     3
370
     0
100
AcDbTrace
 10
-48.00184018761342
 20
57.79692771898121
 30
0.0
 11
-48.83942341912074
 21
56.35601408240353
 31
0.0
 12
-52.7433727131001
 22
59.58922059521438
 32
0.0
 13
-52.7433727131001
 23
59.58922059521438
 33
0.0
  0
SOLID
  5
236
330
1E4
100
AcDbEntity
  8
0
  6
Continuous
 62
     3
370
     0
100
AcDbTrace
 10
-3.849967185278328
 20
32.13205265108257
 30
0.0
 11
-4.687550416785668
 21
30.69113901450491
 31
0.0
 12
0.0539821087010211
 22
28.89884613827172
 32
0.0
 13
0.0539821087010211
 23
28.89884613827172
 33
0.0
  0
MTEXT
  5
237
330
1E4
100
AcDbEntity
  8
0
  6
Continuous
 62
     3
370
     0
100
AcDbMText
 10
-26.34469530219955
 20
44.24403336674305
 30
0.0
 40
3.0
 41
0.0
 71
     5
 72
     1
  1
\A1;61mm
 73
     1
 44
1.0
1001
ACAD
1000
MTEXTBEGIN
1070
    73
1070
     1
1070
    44
1040
1.0
1070
    74
1070
     0
1000
MTEXTEND
  0
POINT
  5
238
330
1E4
100
AcDbEntity
  8
Defpoints
  6
Continuous
 62
     0
370
     0
100
AcDbPoint
 10
-47.20816845849525
 20
69.11155938099631
 30
0.0
  0
POINT
  5
239
330
1E4
100
AcDbEntity
  8
Defpoints
  6
Continuous
 62
     0
370
     0
100
AcDbPoint
 10
5.589186363305882
 20
38.42118492405365
 30
0.0
  0
POINT
  5
23A
330
1E4
100
AcDbEntity
  8
Defpoints
  6
Continuous
 62
     0
370
     0
100
AcDbPoint
 10
0.0539821087010211
 20
28.89884613827172
 30
0.0
  0
ENDBLK
  5
1F0
330
1E4
100
AcDbEntity
  8
0
370
     0
100
AcDbBlockEnd
  0
ENDSEC
  0
SECTION
  2
ENTITIES
  0
SPLINE
  5
29
330
A
100
AcDbEntity
  8
Livello 1
 62
     7
100
AcDbSpline
210
0.0
220
0.0
230
1.0
 70
    11
 71
     3
 72
   268
 73
   264
 74
     0
 42
0.0000000001
 43
0.0000000001
 40
0.0
 40
0.0
 40
0.0
 40
0.0
 40
0.0151515151515152
 40
0.0151515151515152
 40
0.0151515151515152
 40
0.0151515151515152
 40
0.0303030303030303
 40
0.0303030303030303
 40
0.0303030303030303
 40
0.0303030303030303
 40
0.0454545454545455
 40
0.0454545454545455
 40
0.0454545454545455
 40
0.0454545454545455
 40
0.0606060606060606
 40
0.0606060606060606
 40
0.0606060606060606
 40
0.0606060606060606
 40
0.0757575757575758
 40
0.0757575757575758
 40
0.0757575757575758
 40
0.0757575757575758
 40
0.0909090909090909
 40
0.0909090909090909
 40
0.0909090909090909
 40
0.0909090909090909
 40
0.1060606060606061
 40
0.1060606060606061
 40
0.1060606060606061
 40
0.1060606060606061
 40
0.1212121212121212
 40
0.1212121212121212
 40
0.1212121212121212
 40
0.1212121212121212
 40
0.1363636363636364
 40
0.1363636363636364
 40
0.1363636363636364
 40
0.1363636363636364
 40
0.1515151515151515
 40
0.1515151515151515
 40
0.1515151515151515
 40
0.1515151515151515
 40
0.1666666666666666
 40
0.1666666666666666
 40
0.1666666666666666
 40
0.1666666666666666
 40
0.1818181818181818
 40
0.1818181818181818
 40
0.1818181818181818
 40
0.1818181818181818
 40
0.1969696969696969
 40
0.1969696969696969
 40
0.1969696969696969
 40
0.1969696969696969
 40
0.212121212121212
 40
0.212121212121212
 40
0.212121212121212
 40
0.212121212121212
 40
0.2272727272727272
 40
0.2272727272727272
 40
0.2272727272727272
 40
0.2272727272727272
 40
0.2424242424242423
 40
0.2424242424242423
 40
0.2424242424242423
 40
0.2424242424242423
 40
0.2575757575757575
 40
0.2575757575757575
 40
0.2575757575757575
 40
0.2575757575757575
 40
0.2727272727272726
 40
0.2727272727272726
 40
0.2727272727272726
 40
0.2727272727272726
 40
0.2878787878787877
 40
0.2878787878787877
 40
0.2878787878787877
 40
0.2878787878787877
 40
0.3030303030303029
 40
0.3030303030303029
 40
0.3030303030303029
 40
0.3030303030303029
 40
0.3181818181818179
 40
0.3181818181818179
 40
0.3181818181818179
 40
0.3181818181818179
 40
0.3333333333333332
 40
0.3333333333333332
 40
0.3333333333333332
 40
0.3333333333333332
 40
0.3484848484848483
 40
0.3484848484848483
 40
0.3484848484848483
 40
0.3484848484848483
 40
0.3636363636363634
 40
0.3636363636363634
 40
0.3636363636363634
 40
0.3636363636363634
 40
0.3787878787878786
 40
0.3787878787878786
 40
0.3787878787878786
 40
0.3787878787878786
 40
0.3939393939393937
 40
0.3939393939393937
 40
0.3939393939393937
 40
0.3939393939393937
 40
0.4090909090909089
 40
0.4090909090909089
 40
0.4090909090909089
 40
0.4090909090909089
 40
0.424242424242424
 40
0.424242424242424
 40
0.424242424242424
 40
0.424242424242424
 40
0.4393939393939391
 40
0.4393939393939391
 40
0.4393939393939391
 40
0.4393939393939391
 40
0.4545454545454544
 40
0.4545454545454544
 40
0.4545454545454544
 40
0.4545454545454544
 40
0.4696969696969694
 40
0.4696969696969694
 40
0.4696969696969694
 40
0.4696969696969694
 40
0.4848484848484845
 40
0.4848484848484845
 40
0.4848484848484845
 40
0.4848484848484845
 40
0.5
 40
0.5
 40
0.5
 40
0.5
 40
0.5151515151515148
 40
0.5151515151515148
 40
0.5151515151515148
 40
0.5151515151515148
 40
0.5303030303030301
 40
0.5303030303030301
 40
0.5303030303030301
 40
0.5303030303030301
 40
0.5454545454545451
 40
0.5454545454545451
 40
0.5454545454545451
 40
0.5454545454545451
 40
0.5606060606060602
 40
0.5606060606060602
 40
0.5606060606060602
 40
0.5606060606060602
 40
0.5757575757575754
 40
0.5757575757575754
 40
0.5757575757575754
 40
0.5757575757575754
 40
0.5909090909090905
 40
0.5909090909090905
 40
0.5909090909090905
 40
0.5909090909090905
 40
0.6060606060606056
 40
0.6060606060606056
 40
0.6060606060606056
 40
0.6060606060606056
 40
0.6212121212121208
 40
0.6212121212121208
 40
0.6212121212121208
 40
0.6212121212121208
 40
0.6363636363636359
 40
0.6363636363636359
 40
0.6363636363636359
 40
0.6363636363636359
 40
0.6515151515151511
 40
0.6515151515151511
 40
0.6515151515151511
 40
0.6515151515151511
 40
0.6666666666666662
 40
0.6666666666666662
 40
0.6666666666666662
 40
0.6666666666666662
 40
0.6818181818181813
 40
0.6818181818181813
 40
0.6818181818181813
 40
0.6818181818181813
 40
0.6969696969696965
 40
0.6969696969696965
 40
0.6969696969696965
 40
0.6969696969696965
 40
0.7121212121212116
 40
0.7121212121212116
 40
0.7121212121212116
 40
0.7121212121212116
 40
0.7272727272727268
 40
0.7272727272727268
 40
0.7272727272727268
 40
0.7272727272727268
 40
0.7424242424242419
 40
0.7424242424242419
 40
0.7424242424242419
 40
0.7424242424242419
 40
0.757575757575757
 40
0.757575757575757
 40
0.757575757575757
 40
0.757575757575757
 40
0.7727272727272722
 40
0.7727272727272722
 40
0.7727272727272722
 40
0.7727272727272722
 40
0.7878787878787873
 40
0.7878787878787873
 40
0.7878787878787873
 40
0.7878787878787873
 40
0.8030303030303024
 40
0.8030303030303024
 40
0.8030303030303024
 40
0.8030303030303024
 40
0.8181818181818176
 40
0.8181818181818176
 40
0.8181818181818176
 40
0.8181818181818176
 40
0.8333333333333325
 40
0.8333333333333325
 40
0.8333333333333325
 40
0.8333333333333325
 40
0.8484848484848479
 40
0.8484848484848479
 40
0.8484848484848479
 40
0.8484848484848479
 40
0.8636363636363629
 40
0.8636363636363629
 40
0.8636363636363629
 40
0.8636363636363629
 40
0.8787878787878781
 40
0.8787878787878781
 40
0.8787878787878781
 40
0.8787878787878781
 40
0.893939393939393
 40
0.893939393939393
 40
0.893939393939393
 40
0.893939393939393
 40
0.9090909090909084
 40
0.9090909090909084
 40
0.9090909090909084
 40
0.9090909090909084
 40
0.9242424242424236
 40
0.9242424242424236
 40
0.9242424242424236
 40
0.9242424242424236
 40
0.9393939393939387
 40
0.9393939393939387
 40
0.9393939393939387
 40
0.9393939393939387
 40
0.9545454545454536
 40
0.9545454545454536
 40
0.9545454545454536
 40
0.9545454545454536
 40
0.969696969696969
 40
0.969696969696969
 40
0.969696969696969
 40
0.969696969696969
 40
0.984848484848484
 40
0.984848484848484
 40
0.984848484848484
 40
0.984848484848484
 40
1.0
 40
1.0
 40
1.0
 40
1.0
 10
12.62316468270171
 20
38.68975855400485
 30
0.0
 10
12.62316468270171
 20
38.68975855400485
 30
0.0
 10
16.58556468270171
 20
41.02655855400485
 30
0.0
 10
16.58556468270171
 20
41.02655855400485
 30
0.0
 10
16.58556468270171
 20
41.02655855400485
 30
0.0
 10
16.58556468270171
 20
41.02655855400485
 30
0.0
 10
17.0935646827017
 20
41.12815855400481
 30
0.0
 10
17.0935646827017
 20
42.04255855400481
 30
0.0
 10
17.0935646827017
 20
42.04255855400481
 30
0.0
 10
17.0935646827017
 20
42.04255855400481
 30
0.0
 10
17.0935646827017
 20
44.07455855400485
 30
0.0
 10
17.0935646827017
 20
44.07455855400485
 30
0.0
 10
17.0935646827017
 20
44.07455855400485
 30
0.0
 10
17.0935646827017
 20
44.07455855400485
 30
0.0
 10
16.99196468270173
 20
44.78575855400484
 30
0.0
 10
16.28076468270171
 20
44.37935855400485
 30
0.0
 10
16.28076468270171
 20
44.37935855400485
 30
0.0
 10
16.28076468270171
 20
44.37935855400485
 30
0.0
 10
15.36636468270171
 20
43.87135855400481
 30
0.0
 10
15.36636468270171
 20
43.87135855400481
 30
0.0
 10
15.36636468270171
 20
43.87135855400481
 30
0.0
 10
15.36636468270171
 20
43.87135855400481
 30
0.0
 10
15.36636468270171
 20
56.36815855400483
 30
0.0
 10
15.36636468270171
 20
56.36815855400483
 30
0.0
 10
15.36636468270171
 20
56.36815855400483
 30
0.0
 10
15.36636468270171
 20
56.36815855400483
 30
0.0
 10
16.7887646827017
 20
57.07935855400485
 30
0.0
 10
16.7887646827017
 20
57.07935855400485
 30
0.0
 10
16.7887646827017
 20
57.07935855400485
 30
0.0
 10
16.7887646827017
 20
57.07935855400485
 30
0.0
 10
16.7887646827017
 20
59.31455855400487
 30
0.0
 10
16.7887646827017
 20
59.31455855400487
 30
0.0
 10
16.7887646827017
 20
59.31455855400487
 30
0.0
 10
16.7887646827017
 20
59.31455855400487
 30
0.0
 10
16.6871646827017
 20
60.33055855400483
 30
0.0
 10
15.97596468270171
 20
60.63535855400483
 30
0.0
 10
15.97596468270171
 20
60.63535855400483
 30
0.0
 10
15.97596468270171
 20
60.63535855400483
 30
0.0
 10
15.1631646827017
 20
61.14335855400481
 30
0.0
 10
15.1631646827017
 20
61.14335855400481
 30
0.0
 10
15.1631646827017
 20
61.14335855400481
 30
0.0
 10
15.1631646827017
 20
61.14335855400481
 30
0.0
 10
15.1631646827017
 20
61.44815855400484
 30
0.0
 10
15.1631646827017
 20
61.44815855400484
 30
0.0
 10
15.1631646827017
 20
61.44815855400484
 30
0.0
 10
15.1631646827017
 20
61.44815855400484
 30
0.0
 10
15.36636468270171
 20
61.54975855400483
 30
0.0
 10
15.36636468270171
 20
61.54975855400483
 30
0.0
 10
15.36636468270171
 20
61.54975855400483
 30
0.0
 10
15.36636468270171
 20
61.54975855400483
 30
0.0
 10
15.36636468270171
 20
63.98815855400483
 30
0.0
 10
15.36636468270171
 20
63.98815855400483
 30
0.0
 10
15.36636468270171
 20
63.98815855400483
 30
0.0
 10
15.36636468270171
 20
63.98815855400483
 30
0.0
 10
15.67116468270171
 20
64.1913585540048
 30
0.0
 10
15.87436468270171
 20
64.90255855400483
 30
0.0
 10
15.87436468270171
 20
64.90255855400483
 30
0.0
 10
15.87436468270171
 20
64.90255855400483
 30
0.0
 10
21.66556468270171
 20
69.27135855400482
 30
0.0
 10
21.66556468270171
 20
69.27135855400482
 30
0.0
 10
21.66556468270171
 20
69.27135855400482
 30
0.0
 10
21.66556468270171
 20
69.27135855400482
 30
0.0
 10
22.68156468270168
 20
69.98255855400481
 30
0.0
 10
22.68156468270168
 20
71.50655855400481
 30
0.0
 10
22.68156468270168
 20
71.50655855400481
 30
0.0
 10
22.68156468270168
 20
71.50655855400481
 30
0.0
 10
22.68156468270168
 20
81.97135855400484
 30
0.0
 10
22.68156468270168
 20
81.97135855400484
 30
0.0
 10
22.68156468270168
 20
81.97135855400484
 30
0.0
 10
22.68156468270168
 20
81.97135855400484
 30
0.0
 10
22.88476468270172
 20
82.68255855400486
 30
0.0
 10
22.07196468270168
 20
82.98735855400483
 30
0.0
 10
22.07196468270168
 20
82.98735855400483
 30
0.0
 10
22.07196468270168
 20
82.98735855400483
 30
0.0
 10
21.05596468270171
 20
83.59695855400483
 30
0.0
 10
21.05596468270171
 20
83.59695855400483
 30
0.0
 10
21.05596468270171
 20
83.59695855400483
 30
0.0
 10
21.05596468270171
 20
83.59695855400483
 30
0.0
 10
20.64956468270174
 20
83.80015855400486
 30
0.0
 10
20.03996468270174
 20
83.49535855400484
 30
0.0
 10
20.03996468270174
 20
83.49535855400484
 30
0.0
 10
20.03996468270174
 20
83.49535855400484
 30
0.0
 10
15.1631646827017
 20
81.66655855400483
 30
0.0
 10
15.1631646827017
 20
81.66655855400483
 30
0.0
 10
15.1631646827017
 20
81.66655855400483
 30
0.0
 10
15.1631646827017
 20
81.66655855400483
 30
0.0
 10
15.1631646827017
 20
83.69855855400485
 30
0.0
 10
15.1631646827017
 20
83.69855855400485
 30
0.0
 10
15.1631646827017
 20
83.69855855400485
 30
0.0
 10
15.1631646827017
 20
83.69855855400485
 30
0.0
 10
15.77276468270173
 20
84.10495855400483
 30
0.0
 10
16.48396468270171
 20
84.61295855400488
 30
0.0
 10
16.48396468270171
 20
84.61295855400488
 30
0.0
 10
17.0935646827017
 20
85.12095855400483
 30
0.0
 10
26.64396468270172
 20
92.13135855400485
 30
0.0
 10
26.64396468270172
 20
92.13135855400485
 30
0.0
 10
26.64396468270172
 20
92.13135855400485
 30
0.0
 10
26.64396468270172
 20
92.13135855400485
 30
0.0
 10
26.84716468270173
 20
92.23295855400484
 30
0.0
 10
26.84716468270173
 20
92.63935855400484
 30
0.0
 10
26.84716468270173
 20
92.63935855400484
 30
0.0
 10
26.84716468270173
 20
92.63935855400484
 30
0.0
 10
26.84716468270173
 20
96.19535855400485
 30
0.0
 10
26.84716468270173
 20
96.19535855400485
 30
0.0
 10
26.84716468270173
 20
96.19535855400485
 30
0.0
 10
26.84716468270173
 20
96.19535855400485
 30
0.0
 10
26.74556468270171
 20
96.50015855400482
 30
0.0
 10
26.13596468270174
 20
96.39855855400483
 30
0.0
 10
26.13596468270174
 20
96.39855855400483
 30
0.0
 10
26.13596468270174
 20
96.39855855400483
 30
0.0
 10
21.86876468270174
 20
96.09375855400484
 30
0.0
 10
21.86876468270174
 20
96.09375855400484
 30
0.0
 10
21.86876468270174
 20
96.09375855400484
 30
0.0
 10
21.86876468270174
 20
96.09375855400484
 30
0.0
 10
21.46236468270172
 20
95.89055855400482
 30
0.0
 10
21.46236468270172
 20
95.89055855400482
 30
0.0
 10
21.46236468270172
 20
95.89055855400482
 30
0.0
 10
21.46236468270172
 20
95.89055855400482
 30
0.0
 10
21.46236468270172
 20
94.67135855400483
 30
0.0
 10
21.46236468270172
 20
94.67135855400483
 30
0.0
 10
21.46236468270172
 20
94.67135855400483
 30
0.0
 10
21.46236468270172
 20
94.67135855400483
 30
0.0
 10
15.36636468270171
 20
91.21695855400485
 30
0.0
 10
15.36636468270171
 20
91.21695855400485
 30
0.0
 10
15.36636468270171
 20
91.21695855400485
 30
0.0
 10
15.36636468270171
 20
91.21695855400485
 30
0.0
 10
15.36636468270171
 20
101.4785585540048
 30
0.0
 10
15.36636468270171
 20
101.4785585540048
 30
0.0
 10
15.36636468270171
 20
101.4785585540048
 30
0.0
 10
15.36636468270171
 20
101.4785585540048
 30
0.0
 10
16.7887646827017
 20
102.2913585540048
 30
0.0
 10
16.7887646827017
 20
102.2913585540048
 30
0.0
 10
16.7887646827017
 20
102.2913585540048
 30
0.0
 10
16.7887646827017
 20
102.2913585540048
 30
0.0
 10
17.19516468270171
 20
102.4945585540048
 30
0.0
 10
17.0935646827017
 20
103.0025585540048
 30
0.0
 10
17.0935646827017
 20
103.0025585540048
 30
0.0
 10
17.0935646827017
 20
103.0025585540048
 30
0.0
 10
17.0935646827017
 20
104.7297585540048
 30
0.0
 10
17.0935646827017
 20
104.7297585540048
 30
0.0
 10
17.0935646827017
 20
104.7297585540048
 30
0.0
 10
17.0935646827017
 20
104.7297585540048
 30
0.0
 10
17.0935646827017
 20
105.9489585540048
 30
0.0
 10
15.97596468270171
 20
106.5585585540048
 30
0.0
 10
15.97596468270171
 20
106.5585585540048
 30
0.0
 10
15.97596468270171
 20
106.5585585540048
 30
0.0
 10
14.35036468270171
 20
107.5745585540049
 30
0.0
 10
14.35036468270171
 20
107.5745585540049
 30
0.0
 10
14.35036468270171
 20
107.5745585540049
 30
0.0
 10
14.35036468270171
 20
107.5745585540049
 30
0.0
 10
14.04556468270169
 20
107.6761585540048
 30
0.0
 10
13.6391646827017
 20
107.4729585540048
 30
0.0
 10
13.6391646827017
 20
107.4729585540048
 30
0.0
 10
13.6391646827017
 20
107.4729585540048
 30
0.0
 10
12.31836468270171
 20
106.7617585540048
 30
0.0
 10
12.31836468270171
 20
106.7617585540048
 30
0.0
 10
12.31836468270171
 20
106.7617585540048
 30
0.0
 10
12.31836468270171
 20
106.7617585540048
 30
0.0
 10
-4.750435317298296
 20
116.6169585540048
 30
0.0
 10
-4.750435317298296
 20
116.6169585540048
 30
0.0
 10
-4.750435317298296
 20
116.6169585540048
 30
0.0
 10
-4.750435317298296
 20
116.6169585540048
 30
0.0
 10
-0.7880353172982951
 20
119.7665585540048
 30
0.0
 10
-0.7880353172982951
 20
119.7665585540048
 30
0.0
 10
-0.7880353172982951
 20
119.7665585540048
 30
0.0
 10
-0.7880353172982951
 20
119.7665585540048
 30
0.0
 10
-0.3816353172982758
 20
120.1729585540048
 30
0.0
 10
-0.2800353172982852
 20
120.4777585540048
 30
0.0
 10
-0.2800353172982852
 20
120.4777585540048
 30
0.0
 10
-0.2800353172982852
 20
120.4777585540048
 30
0.0
 10
-0.2800353172982852
 20
122.2049585540048
 30
0.0
 10
-0.2800353172982852
 20
122.2049585540048
 30
0.0
 10
-0.2800353172982852
 20
122.2049585540048
 30
0.0
 10
-0.2800353172982852
 20
122.2049585540048
 30
0.0
 10
-0.3816353172982758
 20
122.6113585540048
 30
0.0
 10
-0.8896353172982854
 20
122.8145585540048
 30
0.0
 10
-0.8896353172982854
 20
122.8145585540048
 30
0.0
 10
-0.8896353172982854
 20
122.8145585540048
 30
0.0
 10
-10.13523531729828
 20
128.0977585540048
 30
0.0
 10
-10.13523531729828
 20
128.0977585540048
 30
0.0
 10
-10.13523531729828
 20
128.0977585540048
 30
0.0
 10
-10.13523531729828
 20
128.0977585540048
 30
0.0
 10
-11.25283531729829
 20
128.7073585540048
 30
0.0
 10
-12.57363531729828
 20
128.1993585540048
 30
0.0
 10
-12.57363531729828
 20
128.1993585540048
 30
0.0
 10
-12.57363531729828
 20
128.1993585540048
 30
0.0
 10
-19.58403531729828
 20
125.1513585540048
 30
0.0
 10
-19.58403531729828
 20
125.1513585540048
 30
0.0
 10
-19.58403531729828
 20
125.1513585540048
 30
0.0
 10
-19.58403531729828
 20
125.1513585540048
 30
0.0
 10
-37.5672353172983
 20
135.5145585540048
 30
0.0
 10
-37.5672353172983
 20
135.5145585540048
 30
0.0
 10
-37.5672353172983
 20
135.5145585540048
 30
0.0
 10
-37.5672353172983
 20
135.5145585540048
 30
0.0
 10
-36.55123531729826
 20
136.1241585540048
 30
0.0
 10
-36.55123531729826
 20
136.1241585540048
 30
0.0
 10
-36.55123531729826
 20
136.1241585540048
 30
0.0
 10
-36.55123531729826
 20
136.1241585540048
 30
0.0
 10
-36.0432353172983
 20
136.5305585540048
 30
0.0
 10
-36.6528353172983
 20
136.9369585540048
 30
0.0
 10
-36.6528353172983
 20
136.9369585540048
 30
0.0
 10
-37.2624353172983
 20
137.3433585540048
 30
0.0
 10
-38.4816353172983
 20
138.0545585540048
 30
0.0
 10
-38.4816353172983
 20
138.0545585540048
 30
0.0
 10
-38.4816353172983
 20
138.0545585540048
 30
0.0
 10
-38.4816353172983
 20
138.0545585540048
 30
0.0
 10
-38.98963531729826
 20
138.3593585540048
 30
0.0
 10
-39.49763531729831
 20
138.0545585540048
 30
0.0
 10
-39.49763531729831
 20
138.0545585540048
 30
0.0
 10
-39.9040353172983
 20
137.8513585540048
 30
0.0
 10
-42.3424353172983
 20
136.3273585540048
 30
0.0
 10
-43.25683531729827
 20
135.8193585540048
 30
0.0
 10
-43.25683531729827
 20
135.8193585540048
 30
0.0
 10
-43.25683531729827
 20
135.8193585540048
 30
0.0
 10
-43.96803531729829
 20
135.9209585540049
 30
0.0
 10
-44.2728353172983
 20
135.7177585540048
 30
0.0
 10
-44.2728353172983
 20
135.7177585540048
 30
0.0
 10
-44.2728353172983
 20
135.7177585540048
 30
0.0
 10
-45.18723531729828
 20
135.2097585540048
 30
0.0
 10
-45.18723531729828
 20
135.2097585540048
 30
0.0
 10
-45.18723531729828
 20
135.2097585540048
 30
0.0
 10
-45.18723531729828
 20
135.2097585540048
 30
0.0
 10
-45.69523531729827
 20
134.9049585540048
 30
0.0
 10
-45.59363531729824
 20
133.3809585540048
 30
0.0
 10
-45.59363531729824
 20
133.3809585540048
 30
0.0
 10
-45.59363531729824
 20
133.3809585540048
 30
0.0
 10
-46.50803531729827
 20
132.7713585540048
 30
0.0
 10
-46.50803531729827
 20
132.7713585540048
 30
0.0
 10
-46.50803531729827
 20
132.7713585540048
 30
0.0
 10
-46.50803531729827
 20
132.7713585540048
 30
0.0
 10
-47.01603531729829
 20
132.5681585540048
 30
0.0
 10
-47.01603531729829
 20
131.8569585540048
 30
0.0
 10
-47.01603531729829
 20
131.8569585540048
 30
0.0
 10
-47.01603531729829
 20
131.1457585540048
 30
0.0
 10
-47.2192353172983
 20
70.38895855400483
 30
0.0
 10
-47.2192353172983
 20
70.38895855400483
 30
0.0
 10
-47.2192353172983
 20
70.38895855400483
 30
0.0
 10
-47.2192353172983
 20
70.38895855400483
 30
0.0
 10
-47.3208353172983
 20
69.16975855400483
 30
0.0
 10
-46.20323531729829
 20
68.25535855400483
 30
0.0
 10
-46.20323531729829
 20
68.25535855400483
 30
0.0
 10
-46.20323531729829
 20
68.25535855400483
 30
0.0
 10
7.136764682701707
 20
37.36895855400482
 30
0.0
 10
7.136764682701707
 20
37.36895855400482
 30
0.0
 10
7.136764682701707
 20
37.36895855400482
 30
0.0
 10
7.136764682701707
 20
37.36895855400482
 30
0.0
 10
7.949564682701691
 20
36.96255855400483
 30
0.0
 10
8.66076468270171
 20
37.36895855400482
 30
0.0
 10
8.66076468270171
 20
37.36895855400482
 30
0.0
 10
8.66076468270171
 20
37.36895855400482
 30
0.0
 10
9.27036468270171
 20
37.67375855400481
 30
0.0
 10
9.27036468270171
 20
37.67375855400481
 30
0.0
 10
9.27036468270171
 20
37.67375855400481
 30
0.0
 10
9.27036468270171
 20
37.67375855400481
 30
0.0
 10
10.18476468270171
 20
37.16575855400485
 30
0.0
 10
10.18476468270171
 20
37.16575855400485
 30
0.0
 10
10.18476468270171
 20
37.16575855400485
 30
0.0
 10
10.18476468270171
 20
37.16575855400485
 30
0.0
 10
10.69276468270169
 20
36.96255855400483
 30
0.0
 10
11.60716468270172
 20
37.57215855400483
 30
0.0
 10
11.60716468270172
 20
37.57215855400483
 30
0.0
 10
11.60716468270172
 20
37.57215855400483
 30
0.0
 10
12.41996468270173
 20
37.87695855400483
 30
0.0
 10
12.62316468270171
 20
38.68975855400485
 30
0.0
  0
SPLINE
  5
6B
330
A
100
AcDbEntity
  8
Livello 1
370
    15
100
AcDbSpline
210
0.0
220
0.0
230
1.0
 70
     8
 71
     3
 72
     8
 73
     4
 74
     0
 42
0.0000000001
 43
0.0000000001
 40
0.0
 40
0.0
 40
0.0
 40
0.0
 40
1.0
 40
1.0
 40
1.0
 40
1.0
 10
15.77276468270173
 20
64.90255855400483
 30
0.0
 10
15.77276468270173
 20
64.90255855400483
 30
0.0
 10
15.77276468270173
 20
64.29295855400486
 30
0.0
 10
15.36636468270171
 20
63.98815855400483
 30
0.0
  0
SPLINE
  5
6C
330
A
100
AcDbEntity
  8
Livello 1
370
    15
100
AcDbSpline
210
0.0
220
0.0
230
1.0
 70
    24
 71
     3
 72
     8
 73
     4
 74
     0
 42
0.0000000001
 43
0.0000000001
 40
0.0
 40
0.0
 40
0.0
 40
0.0
 40
1.0
 40
1.0
 40
1.0
 40
1.0
 10
12.62316468270171
 20
78.51695855400484
 30
0.0
 10
12.62316468270171
 20
78.51695855400484
 30
0.0
 10
12.62316468270171
 20
75.16415855400484
 30
0.0
 10
12.62316468270171
 20
75.16415855400484
 30
0.0
  0
SPLINE
  5
6D
330
A
100
AcDbEntity
  8
Livello 1
370
    15
100
AcDbSpline
210
0.0
220
0.0
230
1.0
 70
    24
 71
     3
 72
     8
 73
     4
 74
     0
 42
0.0000000001
 43
0.0000000001
 40
0.0
 40
0.0
 40
0.0
 40
0.0
 40
1.0
 40
1.0
 40
1.0
 40
1.0
 10
12.62316468270171
 20
66.32495855400484
 30
0.0
 10
12.62316468270171
 20
66.32495855400484
 30
0.0
 10
12.62316468270171
 20
62.97215855400483
 30
0.0
 10
12.62316468270171
 20
62.97215855400483
 30
0.0
  0
SPLINE
  5
6E
330
A
100
AcDbEntity
  8
Livello 1
370
    15
100
AcDbSpline
210
0.0
220
0.0
230
1.0
 70
    24
 71
     3
 72
     8
 73
     4
 74
     0
 42
0.0000000001
 43
0.0000000001
 40
0.0
 40
0.0
 40
0.0
 40
0.0
 40
1.0
 40
1.0
 40
1.0
 40
1.0
 10
15.36636468270171
 20
76.58655855400484
 30
0.0
 10
15.36636468270171
 20
76.58655855400484
 30
0.0
 10
12.62316468270171
 20
75.16415855400484
 30
0.0
 10
12.62316468270171
 20
75.16415855400484
 30
0.0
  0
SPLINE
  5
6F
330
A
100
AcDbEntity
  8
Livello 1
370
    15
100
AcDbSpline
210
0.0
220
0.0
230
1.0
 70
    24
 71
     3
 72
     8
 73
     4
 74
     0
 42
0.0000000001
 43
0.0000000001
 40
0.0
 40
0.0
 40
0.0
 40
0.0
 40
1.0
 40
1.0
 40
1.0
 40
1.0
 10
15.36636468270171
 20
68.05215855400482
 30
0.0
 10
15.36636468270171
 20
68.05215855400482
 30
0.0
 10
12.62316468270171
 20
66.32495855400484
 30
0.0
 10
12.62316468270171
 20
66.32495855400484
 30
0.0
  0
SPLINE
  5
70
330
A
100
AcDbEntity
  8
Livello 1
370
    15
100
AcDbSpline
210
0.0
220
0.0
230
1.0
 70
    24
 71
     3
 72
     8
 73
     4
 74
     0
 42
0.0000000001
 43
0.0000000001
 40
0.0
 40
0.0
 40
0.0
 40
0.0
 40
1.0
 40
1.0
 40
1.0
 40
1.0
 10
26.64396468270172
 20
96.39855855400483
 30
0.0
 10
26.64396468270172
 20
96.39855855400483
 30
0.0
 10
26.74556468270171
 20
96.39855855400483
 30
0.0
 10
26.74556468270171
 20
96.39855855400483
 30
0.0
  0
SPLINE
  5
71
330
A
100
AcDbEntity
  8
Livello 1
370
    15
100
AcDbSpline
210
0.0
220
0.0
230
1.0
 70
    27
 71
     3
 72
     8
 73
     4
 74
     0
 42
0.0000000001
 43
0.0000000001
 40
0.0
 40
0.0
 40
0.0
 40
0.0
 40
1.0
 40
1.0
 40
1.0
 40
1.0
 10
26.64396468270172
 20
96.39855855400483
 30
0.0
 10
26.64396468270172
 20
96.39855855400483
 30
0.0
 10
26.64396468270172
 20
96.39855855400483
 30
0.0
 10
26.64396468270172
 20
96.39855855400483
 30
0.0
  0
SPLINE
  5
72
330
A
100
AcDbEntity
  8
Livello 1
370
    15
100
AcDbSpline
210
0.0
220
0.0
230
1.0
 70
    27
 71
     3
 72
     8
 73
     4
 74
     0
 42
0.0000000001
 43
0.0000000001
 40
0.0
 40
0.0
 40
0.0
 40
0.0
 40
1.0
 40
1.0
 40
1.0
 40
1.0
 10
26.64396468270172
 20
96.39855855400483
 30
0.0
 10
26.64396468270172
 20
96.39855855400483
 30
0.0
 10
26.64396468270172
 20
96.39855855400483
 30
0.0
 10
26.64396468270172
 20
96.39855855400483
 30
0.0
  0
SPLINE
  5
73
330
A
100
AcDbEntity
  8
Livello 1
370
    15
100
AcDbSpline
210
0.0
220
0.0
230
1.0
 70
    27
 71
     3
 72
     8
 73
     4
 74
     0
 42
0.0000000001
 43
0.0000000001
 40
0.0
 40
0.0
 40
0.0
 40
0.0
 40
1.0
 40
1.0
 40
1.0
 40
1.0
 10
26.64396468270172
 20
96.39855855400483
 30
0.0
 10
26.64396468270172
 20
96.39855855400483
 30
0.0
 10
26.64396468270172
 20
96.39855855400483
 30
0.0
 10
26.64396468270172
 20
96.39855855400483
 30
0.0
  0
SPLINE
  5
74
330
A
100
AcDbEntity
  8
Livello 1
370
    15
100
AcDbSpline
210
0.0
220
0.0
230
1.0
 70
    27
 71
     3
 72
     8
 73
     4
 74
     0
 42
0.0000000001
 43
0.0000000001
 40
0.0
 40
0.0
 40
0.0
 40
0.0
 40
1.0
 40
1.0
 40
1.0
 40
1.0
 10
26.64396468270172
 20
96.39855855400483
 30
0.0
 10
26.64396468270172
 20
96.39855855400483
 30
0.0
 10
26.64396468270172
 20
96.39855855400483
 30
0.0
 10
26.64396468270172
 20
96.39855855400483
 30
0.0
  0
SPLINE
  5
75
330
A
100
AcDbEntity
  8
Livello 1
370
    15
100
AcDbSpline
210
0.0
220
0.0
230
1.0
 70
    27
 71
     3
 72
     8
 73
     4
 74
     0
 42
0.0000000001
 43
0.0000000001
 40
0.0
 40
0.0
 40
0.0
 40
0.0
 40
1.0
 40
1.0
 40
1.0
 40
1.0
 10
26.64396468270172
 20
96.39855855400483
 30
0.0
 10
26.64396468270172
 20
96.39855855400483
 30
0.0
 10
26.64396468270172
 20
96.39855855400483
 30
0.0
 10
26.64396468270172
 20
96.39855855400483
 30
0.0
  0
SPLINE
  5
76
330
A
100
AcDbEntity
  8
Livello 1
370
    15
100
AcDbSpline
210
0.0
220
0.0
230
1.0
 70
    24
 71
     3
 72
     8
 73
     4
 74
     0
 42
0.0000000001
 43
0.0000000001
 40
0.0
 40
0.0
 40
0.0
 40
0.0
 40
1.0
 40
1.0
 40
1.0
 40
1.0
 10
26.74556468270171
 20
96.39855855400483
 30
0.0
 10
26.74556468270171
 20
96.39855855400483
 30
0.0
 10
26.74556468270171
 20
96.29695855400484
 30
0.0
 10
26.74556468270171
 20
96.29695855400484
 30
0.0
  0
SPLINE
  5
77
330
A
100
AcDbEntity
  8
Livello 1
370
    15
100
AcDbSpline
210
0.0
220
0.0
230
1.0
 70
    27
 71
     3
 72
     8
 73
     4
 74
     0
 42
0.0000000001
 43
0.0000000001
 40
0.0
 40
0.0
 40
0.0
 40
0.0
 40
1.0
 40
1.0
 40
1.0
 40
1.0
 10
26.74556468270171
 20
96.29695855400484
 30
0.0
 10
26.74556468270171
 20
96.29695855400484
 30
0.0
 10
26.74556468270171
 20
96.29695855400484
 30
0.0
 10
26.74556468270171
 20
96.29695855400484
 30
0.0
  0
SPLINE
  5
78
330
A
100
AcDbEntity
  8
Livello 1
370
    15
100
AcDbSpline
210
0.0
220
0.0
230
1.0
 70
    27
 71
     3
 72
     8
 73
     4
 74
     0
 42
0.0000000001
 43
0.0000000001
 40
0.0
 40
0.0
 40
0.0
 40
0.0
 40
1.0
 40
1.0
 40
1.0
 40
1.0
 10
26.74556468270171
 20
96.09375855400484
 30
0.0
 10
26.74556468270171
 20
96.09375855400484
 30
0.0
 10
26.74556468270171
 20
96.09375855400484
 30
0.0
 10
26.74556468270171
 20
96.09375855400484
 30
0.0
  0
SPLINE
  5
79
330
A
100
AcDbEntity
  8
Livello 1
370
    15
100
AcDbSpline
210
0.0
220
0.0
230
1.0
 70
    27
 71
     3
 72
     8
 73
     4
 74
     0
 42
0.0000000001
 43
0.0000000001
 40
0.0
 40
0.0
 40
0.0
 40
0.0
 40
1.0
 40
1.0
 40
1.0
 40
1.0
 10
26.64396468270172
 20
96.39855855400483
 30
0.0
 10
26.64396468270172
 20
96.39855855400483
 30
0.0
 10
26.64396468270172
 20
96.39855855400483
 30
0.0
 10
26.64396468270172
 20
96.39855855400483
 30
0.0
  0
SPLINE
  5
7A
330
A
100
AcDbEntity
  8
Livello 1
370
    15
100
AcDbSpline
210
0.0
220
0.0
230
1.0
 70
    27
 71
     3
 72
     8
 73
     4
 74
     0
 42
0.0000000001
 43
0.0000000001
 40
0.0
 40
0.0
 40
0.0
 40
0.0
 40
1.0
 40
1.0
 40
1.0
 40
1.0
 10
26.74556468270171
 20
96.29695855400484
 30
0.0
 10
26.74556468270171
 20
96.29695855400484
 30
0.0
 10
26.74556468270171
 20
96.29695855400484
 30
0.0
 10
26.74556468270171
 20
96.29695855400484
 30
0.0
  0
SPLINE
  5
7B
330
A
100
AcDbEntity
  8
Livello 1
370
    15
100
AcDbSpline
210
0.0
220
0.0
230
1.0
 70
    27
 71
     3
 72
     8
 73
     4
 74
     0
 42
0.0000000001
 43
0.0000000001
 40
0.0
 40
0.0
 40
0.0
 40
0.0
 40
1.0
 40
1.0
 40
1.0
 40
1.0
 10
26.74556468270171
 20
96.29695855400484
 30
0.0
 10
26.74556468270171
 20
96.29695855400484
 30
0.0
 10
26.74556468270171
 20
96.29695855400484
 30
0.0
 10
26.74556468270171
 20
96.29695855400484
 30
0.0
  0
SPLINE
  5
7C
330
A
100
AcDbEntity
  8
Livello 1
370
    15
100
AcDbSpline
210
0.0
220
0.0
230
1.0
 70
    27
 71
     3
 72
     8
 73
     4
 74
     0
 42
0.0000000001
 43
0.0000000001
 40
0.0
 40
0.0
 40
0.0
 40
0.0
 40
1.0
 40
1.0
 40
1.0
 40
1.0
 10
26.74556468270171
 20
96.09375855400484
 30
0.0
 10
26.74556468270171
 20
96.09375855400484
 30
0.0
 10
26.74556468270171
 20
96.09375855400484
 30
0.0
 10
26.74556468270171
 20
96.09375855400484
 30
0.0
  0
SPLINE
  5
7D
330
A
100
AcDbEntity
  8
Livello 1
370
    15
100
AcDbSpline
210
0.0
220
0.0
230
1.0
 70
    27
 71
     3
 72
     8
 73
     4
 74
     0
 42
0.0000000001
 43
0.0000000001
 40
0.0
 40
0.0
 40
0.0
 40
0.0
 40
1.0
 40
1.0
 40
1.0
 40
1.0
 10
26.64396468270172
 20
96.39855855400483
 30
0.0
 10
26.64396468270172
 20
96.39855855400483
 30
0.0
 10
26.64396468270172
 20
96.39855855400483
 30
0.0
 10
26.64396468270172
 20
96.39855855400483
 30
0.0
  0
SPLINE
  5
7E
330
A
100
AcDbEntity
  8
Livello 1
370
    15
100
AcDbSpline
210
0.0
220
0.0
230
1.0
 70
    27
 71
     3
 72
     8
 73
     4
 74
     0
 42
0.0000000001
 43
0.0000000001
 40
0.0
 40
0.0
 40
0.0
 40
0.0
 40
1.0
 40
1.0
 40
1.0
 40
1.0
 10
26.64396468270172
 20
96.39855855400483
 30
0.0
 10
26.64396468270172
 20
96.39855855400483
 30
0.0
 10
26.64396468270172
 20
96.39855855400483
 30
0.0
 10
26.64396468270172
 20
96.39855855400483
 30
0.0
  0
SPLINE
  5
7F
330
A
100
AcDbEntity
  8
Livello 1
370
    15
100
AcDbSpline
210
0.0
220
0.0
230
1.0
 70
    24
 71
     3
 72
     8
 73
     4
 74
     0
 42
0.0000000001
 43
0.0000000001
 40
0.0
 40
0.0
 40
0.0
 40
0.0
 40
1.0
 40
1.0
 40
1.0
 40
1.0
 10
26.54236468270173
 20
96.39855855400483
 30
0.0
 10
26.54236468270173
 20
96.39855855400483
 30
0.0
 10
26.64396468270172
 20
96.39855855400483
 30
0.0
 10
26.64396468270172
 20
96.39855855400483
 30
0.0
  0
SPLINE
  5
80
330
A
100
AcDbEntity
  8
Livello 1
370
    15
100
AcDbSpline
210
0.0
220
0.0
230
1.0
 70
    27
 71
     3
 72
     8
 73
     4
 74
     0
 42
0.0000000001
 43
0.0000000001
 40
0.0
 40
0.0
 40
0.0
 40
0.0
 40
1.0
 40
1.0
 40
1.0
 40
1.0
 10
26.54236468270173
 20
96.39855855400483
 30
0.0
 10
26.54236468270173
 20
96.39855855400483
 30
0.0
 10
26.54236468270173
 20
96.39855855400483
 30
0.0
 10
26.54236468270173
 20
96.39855855400483
 30
0.0
  0
SPLINE
  5
81
330
A
100
AcDbEntity
  8
Livello 1
370
    15
100
AcDbSpline
210
0.0
220
0.0
230
1.0
 70
    27
 71
     3
 72
     8
 73
     4
 74
     0
 42
0.0000000001
 43
0.0000000001
 40
0.0
 40
0.0
 40
0.0
 40
0.0
 40
1.0
 40
1.0
 40
1.0
 40
1.0
 10
26.74556468270171
 20
96.29695855400484
 30
0.0
 10
26.74556468270171
 20
96.29695855400484
 30
0.0
 10
26.74556468270171
 20
96.29695855400484
 30
0.0
 10
26.74556468270171
 20
96.29695855400484
 30
0.0
  0
SPLINE
  5
82
330
A
100
AcDbEntity
  8
Livello 1
370
    15
100
AcDbSpline
210
0.0
220
0.0
230
1.0
 70
    27
 71
     3
 72
     8
 73
     4
 74
     0
 42
0.0000000001
 43
0.0000000001
 40
0.0
 40
0.0
 40
0.0
 40
0.0
 40
1.0
 40
1.0
 40
1.0
 40
1.0
 10
26.74556468270171
 20
96.09375855400484
 30
0.0
 10
26.74556468270171
 20
96.09375855400484
 30
0.0
 10
26.74556468270171
 20
96.09375855400484
 30
0.0
 10
26.74556468270171
 20
96.09375855400484
 30
0.0
  0
SPLINE
  5
83
330
A
100
AcDbEntity
  8
Livello 1
370
    15
100
AcDbSpline
210
0.0
220
0.0
230
1.0
 70
    27
 71
     3
 72
     8
 73
     4
 74
     0
 42
0.0000000001
 43
0.0000000001
 40
0.0
 40
0.0
 40
0.0
 40
0.0
 40
1.0
 40
1.0
 40
1.0
 40
1.0
 10
26.74556468270171
 20
96.29695855400484
 30
0.0
 10
26.74556468270171
 20
96.29695855400484
 30
0.0
 10
26.74556468270171
 20
96.29695855400484
 30
0.0
 10
26.74556468270171
 20
96.29695855400484
 30
0.0
  0
SPLINE
  5
84
330
A
100
AcDbEntity
  8
Livello 1
370
    15
100
AcDbSpline
210
0.0
220
0.0
230
1.0
 70
    27
 71
     3
 72
     8
 73
     4
 74
     0
 42
0.0000000001
 43
0.0000000001
 40
0.0
 40
0.0
 40
0.0
 40
0.0
 40
1.0
 40
1.0
 40
1.0
 40
1.0
 10
26.74556468270171
 20
96.09375855400484
 30
0.0
 10
26.74556468270171
 20
96.09375855400484
 30
0.0
 10
26.74556468270171
 20
96.09375855400484
 30
0.0
 10
26.74556468270171
 20
96.09375855400484
 30
0.0
  0
SPLINE
  5
85
330
A
100
AcDbEntity
  8
Livello 1
370
    15
100
AcDbSpline
210
0.0
220
0.0
230
1.0
 70
    24
 71
     3
 72
     8
 73
     4
 74
     0
 42
0.0000000001
 43
0.0000000001
 40
0.0
 40
0.0
 40
0.0
 40
0.0
 40
1.0
 40
1.0
 40
1.0
 40
1.0
 10
26.74556468270171
 20
96.29695855400484
 30
0.0
 10
26.74556468270171
 20
96.29695855400484
 30
0.0
 10
26.84716468270173
 20
96.29695855400484
 30
0.0
 10
26.84716468270173
 20
96.29695855400484
 30
0.0
  0
SPLINE
  5
86
330
A
100
AcDbEntity
  8
Livello 1
370
    15
100
AcDbSpline
210
0.0
220
0.0
230
1.0
 70
    27
 71
     3
 72
     8
 73
     4
 74
     0
 42
0.0000000001
 43
0.0000000001
 40
0.0
 40
0.0
 40
0.0
 40
0.0
 40
1.0
 40
1.0
 40
1.0
 40
1.0
 10
26.74556468270171
 20
96.29695855400484
 30
0.0
 10
26.74556468270171
 20
96.29695855400484
 30
0.0
 10
26.74556468270171
 20
96.29695855400484
 30
0.0
 10
26.74556468270171
 20
96.29695855400484
 30
0.0
  0
SPLINE
  5
87
330
A
100
AcDbEntity
  8
Livello 1
370
    15
100
AcDbSpline
210
0.0
220
0.0
230
1.0
 70
    27
 71
     3
 72
     8
 73
     4
 74
     0
 42
0.0000000001
 43
0.0000000001
 40
0.0
 40
0.0
 40
0.0
 40
0.0
 40
1.0
 40
1.0
 40
1.0
 40
1.0
 10
26.74556468270171
 20
96.09375855400484
 30
0.0
 10
26.74556468270171
 20
96.09375855400484
 30
0.0
 10
26.74556468270171
 20
96.09375855400484
 30
0.0
 10
26.74556468270171
 20
96.09375855400484
 30
0.0
  0
SPLINE
  5
88
330
A
100
AcDbEntity
  8
Livello 1
370
    15
100
AcDbSpline
210
0.0
220
0.0
230
1.0
 70
    27
 71
     3
 72
     8
 73
     4
 74
     0
 42
0.0000000001
 43
0.0000000001
 40
0.0
 40
0.0
 40
0.0
 40
0.0
 40
1.0
 40
1.0
 40
1.0
 40
1.0
 10
26.54236468270173
 20
96.39855855400483
 30
0.0
 10
26.54236468270173
 20
96.39855855400483
 30
0.0
 10
26.54236468270173
 20
96.39855855400483
 30
0.0
 10
26.54236468270173
 20
96.39855855400483
 30
0.0
  0
SPLINE
  5
89
330
A
100
AcDbEntity
  8
Livello 1
370
    15
100
AcDbSpline
210
0.0
220
0.0
230
1.0
 70
    27
 71
     3
 72
     8
 73
     4
 74
     0
 42
0.0000000001
 43
0.0000000001
 40
0.0
 40
0.0
 40
0.0
 40
0.0
 40
1.0
 40
1.0
 40
1.0
 40
1.0
 10
26.54236468270173
 20
96.39855855400483
 30
0.0
 10
26.54236468270173
 20
96.39855855400483
 30
0.0
 10
26.54236468270173
 20
96.39855855400483
 30
0.0
 10
26.54236468270173
 20
96.39855855400483
 30
0.0
  0
SPLINE
  5
8A
330
A
100
AcDbEntity
  8
Livello 1
370
    15
100
AcDbSpline
210
0.0
220
0.0
230
1.0
 70
    27
 71
     3
 72
     8
 73
     4
 74
     0
 42
0.0000000001
 43
0.0000000001
 40
0.0
 40
0.0
 40
0.0
 40
0.0
 40
1.0
 40
1.0
 40
1.0
 40
1.0
 10
26.84716468270173
 20
96.29695855400484
 30
0.0
 10
26.84716468270173
 20
96.29695855400484
 30
0.0
 10
26.84716468270173
 20
96.29695855400484
 30
0.0
 10
26.84716468270173
 20
96.29695855400484
 30
0.0
  0
SPLINE
  5
8B
330
A
100
AcDbEntity
  8
Livello 1
370
    15
100
AcDbSpline
210
0.0
220
0.0
230
1.0
 70
    27
 71
     3
 72
     8
 73
     4
 74
     0
 42
0.0000000001
 43
0.0000000001
 40
0.0
 40
0.0
 40
0.0
 40
0.0
 40
1.0
 40
1.0
 40
1.0
 40
1.0
 10
26.84716468270173
 20
96.09375855400484
 30
0.0
 10
26.84716468270173
 20
96.09375855400484
 30
0.0
 10
26.84716468270173
 20
96.09375855400484
 30
0.0
 10
26.84716468270173
 20
96.09375855400484
 30
0.0
  0
SPLINE
  5
8C
330
A
100
AcDbEntity
  8
Livello 1
370
    15
100
AcDbSpline
210
0.0
220
0.0
230
1.0
 70
    27
 71
     3
 72
     8
 73
     4
 74
     0
 42
0.0000000001
 43
0.0000000001
 40
0.0
 40
0.0
 40
0.0
 40
0.0
 40
1.0
 40
1.0
 40
1.0
 40
1.0
 10
26.84716468270173
 20
96.29695855400484
 30
0.0
 10
26.84716468270173
 20
96.29695855400484
 30
0.0
 10
26.84716468270173
 20
96.29695855400484
 30
0.0
 10
26.84716468270173
 20
96.29695855400484
 30
0.0
  0
SPLINE
  5
8D
330
A
100
AcDbEntity
  8
Livello 1
370
    15
100
AcDbSpline
210
0.0
220
0.0
230
1.0
 70
    24
 71
     3
 72
     8
 73
     4
 74
     0
 42
0.0000000001
 43
0.0000000001
 40
0.0
 40
0.0
 40
0.0
 40
0.0
 40
1.0
 40
1.0
 40
1.0
 40
1.0
 10
26.84716468270173
 20
96.19535855400485
 30
0.0
 10
26.84716468270173
 20
96.19535855400485
 30
0.0
 10
26.84716468270173
 20
96.29695855400484
 30
0.0
 10
26.84716468270173
 20
96.29695855400484
 30
0.0
  0
SPLINE
  5
8E
330
A
100
AcDbEntity
  8
Livello 1
370
    15
100
AcDbSpline
210
0.0
220
0.0
230
1.0
 70
    27
 71
     3
 72
     8
 73
     4
 74
     0
 42
0.0000000001
 43
0.0000000001
 40
0.0
 40
0.0
 40
0.0
 40
0.0
 40
1.0
 40
1.0
 40
1.0
 40
1.0
 10
26.84716468270173
 20
96.09375855400484
 30
0.0
 10
26.84716468270173
 20
96.09375855400484
 30
0.0
 10
26.84716468270173
 20
96.09375855400484
 30
0.0
 10
26.84716468270173
 20
96.09375855400484
 30
0.0
  0
SPLINE
  5
8F
330
A
100
AcDbEntity
  8
Livello 1
370
    15
100
AcDbSpline
210
0.0
220
0.0
230
1.0
 70
    24
 71
     3
 72
     8
 73
     4
 74
     0
 42
0.0000000001
 43
0.0000000001
 40
0.0
 40
0.0
 40
0.0
 40
0.0
 40
1.0
 40
1.0
 40
1.0
 40
1.0
 10
26.84716468270173
 20
96.29695855400484
 30
0.0
 10
26.84716468270173
 20
96.29695855400484
 30
0.0
 10
26.84716468270173
 20
96.19535855400485
 30
0.0
 10
26.84716468270173
 20
96.19535855400485
 30
0.0
  0
SPLINE
  5
90
330
A
100
AcDbEntity
  8
Livello 1
370
    15
100
AcDbSpline
210
0.0
220
0.0
230
1.0
 70
    24
 71
     3
 72
     8
 73
     4
 74
     0
 42
0.0000000001
 43
0.0000000001
 40
0.0
 40
0.0
 40
0.0
 40
0.0
 40
1.0
 40
1.0
 40
1.0
 40
1.0
 10
26.84716468270173
 20
96.19535855400485
 30
0.0
 10
26.84716468270173
 20
96.19535855400485
 30
0.0
 10
26.84716468270173
 20
96.29695855400484
 30
0.0
 10
26.84716468270173
 20
96.29695855400484
 30
0.0
  0
SPLINE
  5
91
330
A
100
AcDbEntity
  8
Livello 1
370
    15
100
AcDbSpline
210
0.0
220
0.0
230
1.0
 70
    27
 71
     3
 72
     8
 73
     4
 74
     0
 42
0.0000000001
 43
0.0000000001
 40
0.0
 40
0.0
 40
0.0
 40
0.0
 40
1.0
 40
1.0
 40
1.0
 40
1.0
 10
26.84716468270173
 20
96.09375855400484
 30
0.0
 10
26.84716468270173
 20
96.09375855400484
 30
0.0
 10
26.84716468270173
 20
96.09375855400484
 30
0.0
 10
26.84716468270173
 20
96.09375855400484
 30
0.0
  0
SPLINE
  5
92
330
A
100
AcDbEntity
  8
Livello 1
370
    15
100
AcDbSpline
210
0.0
220
0.0
230
1.0
 70
    24
 71
     3
 72
    12
 73
     8
 74
     0
 42
0.0000000001
 43
0.0000000001
 40
0.0
 40
0.0
 40
0.0
 40
0.0
 40
0.5
 40
0.5
 40
0.5
 40
0.5
 40
1.0
 40
1.0
 40
1.0
 40
1.0
 10
26.44076468270174
 20
96.39855855400483
 30
0.0
 10
26.44076468270174
 20
96.39855855400483
 30
0.0
 10
26.44076468270174
 20
96.39855855400483
 30
0.0
 10
26.44076468270174
 20
96.39855855400483
 30
0.0
 10
26.44076468270174
 20
96.39855855400483
 30
0.0
 10
26.44076468270174
 20
96.39855855400483
 30
0.0
 10
26.54236468270173
 20
96.39855855400483
 30
0.0
 10
26.54236468270173
 20
96.39855855400483
 30
0.0
  0
SPLINE
  5
93
330
A
100
AcDbEntity
  8
Livello 1
370
    15
100
AcDbSpline
210
0.0
220
0.0
230
1.0
 70
    27
 71
     3
 72
     8
 73
     4
 74
     0
 42
0.0000000001
 43
0.0000000001
 40
0.0
 40
0.0
 40
0.0
 40
0.0
 40
1.0
 40
1.0
 40
1.0
 40
1.0
 10
26.44076468270174
 20
96.39855855400483
 30
0.0
 10
26.44076468270174
 20
96.39855855400483
 30
0.0
 10
26.44076468270174
 20
96.39855855400483
 30
0.0
 10
26.44076468270174
 20
96.39855855400483
 30
0.0
  0
SPLINE
  5
94
330
A
100
AcDbEntity
  8
Livello 1
370
    15
100
AcDbSpline
210
0.0
220
0.0
230
1.0
 70
    27
 71
     3
 72
     8
 73
     4
 74
     0
 42
0.0000000001
 43
0.0000000001
 40
0.0
 40
0.0
 40
0.0
 40
0.0
 40
1.0
 40
1.0
 40
1.0
 40
1.0
 10
26.44076468270174
 20
96.39855855400483
 30
0.0
 10
26.44076468270174
 20
96.39855855400483
 30
0.0
 10
26.44076468270174
 20
96.39855855400483
 30
0.0
 10
26.44076468270174
 20
96.39855855400483
 30
0.0
  0
SPLINE
  5
95
330
A
100
AcDbEntity
  8
Livello 1
370
    15
100
AcDbSpline
210
0.0
220
0.0
230
1.0
 70
    24
 71
     3
 72
     8
 73
     4
 74
     0
 42
0.0000000001
 43
0.0000000001
 40
0.0
 40
0.0
 40
0.0
 40
0.0
 40
1.0
 40
1.0
 40
1.0
 40
1.0
 10
26.84716468270173
 20
96.09375855400484
 30
0.0
 10
26.84716468270173
 20
96.09375855400484
 30
0.0
 10
26.84716468270173
 20
96.19535855400485
 30
0.0
 10
26.84716468270173
 20
96.19535855400485
 30
0.0
  0
SPLINE
  5
96
330
A
100
AcDbEntity
  8
Livello 1
370
    15
100
AcDbSpline
210
0.0
220
0.0
230
1.0
 70
    27
 71
     3
 72
     8
 73
     4
 74
     0
 42
0.0000000001
 43
0.0000000001
 40
0.0
 40
0.0
 40
0.0
 40
0.0
 40
1.0
 40
1.0
 40
1.0
 40
1.0
 10
26.84716468270173
 20
96.19535855400485
 30
0.0
 10
26.84716468270173
 20
96.19535855400485
 30
0.0
 10
26.84716468270173
 20
96.19535855400485
 30
0.0
 10
26.84716468270173
 20
96.19535855400485
 30
0.0
  0
SPLINE
  5
97
330
A
100
AcDbEntity
  8
Livello 1
370
    15
100
AcDbSpline
210
0.0
220
0.0
230
1.0
 70
    27
 71
     3
 72
     8
 73
     4
 74
     0
 42
0.0000000001
 43
0.0000000001
 40
0.0
 40
0.0
 40
0.0
 40
0.0
 40
1.0
 40
1.0
 40
1.0
 40
1.0
 10
26.84716468270173
 20
96.19535855400485
 30
0.0
 10
26.84716468270173
 20
96.19535855400485
 30
0.0
 10
26.84716468270173
 20
96.19535855400485
 30
0.0
 10
26.84716468270173
 20
96.19535855400485
 30
0.0
  0
SPLINE
  5
98
330
A
100
AcDbEntity
  8
Livello 1
370
    15
100
AcDbSpline
210
0.0
220
0.0
230
1.0
 70
    27
 71
     3
 72
     8
 73
     4
 74
     0
 42
0.0000000001
 43
0.0000000001
 40
0.0
 40
0.0
 40
0.0
 40
0.0
 40
1.0
 40
1.0
 40
1.0
 40
1.0
 10
26.44076468270174
 20
96.39855855400483
 30
0.0
 10
26.44076468270174
 20
96.39855855400483
 30
0.0
 10
26.44076468270174
 20
96.39855855400483
 30
0.0
 10
26.44076468270174
 20
96.39855855400483
 30
0.0
  0
SPLINE
  5
99
330
A
100
AcDbEntity
  8
Livello 1
370
    15
100
AcDbSpline
210
0.0
220
0.0
230
1.0
 70
    24
 71
     3
 72
     8
 73
     4
 74
     0
 42
0.0000000001
 43
0.0000000001
 40
0.0
 40
0.0
 40
0.0
 40
0.0
 40
1.0
 40
1.0
 40
1.0
 40
1.0
 10
26.84716468270173
 20
96.19535855400485
 30
0.0
 10
26.84716468270173
 20
96.19535855400485
 30
0.0
 10
26.84716468270173
 20
92.43615855400483
 30
0.0
 10
26.84716468270173
 20
92.43615855400483
 30
0.0
  0
SPLINE
  5
9A
330
A
100
AcDbEntity
  8
Livello 1
370
    15
100
AcDbSpline
210
0.0
220
0.0
230
1.0
 70
    27
 71
     3
 72
     8
 73
     4
 74
     0
 42
0.0000000001
 43
0.0000000001
 40
0.0
 40
0.0
 40
0.0
 40
0.0
 40
1.0
 40
1.0
 40
1.0
 40
1.0
 10
26.84716468270173
 20
96.19535855400485
 30
0.0
 10
26.84716468270173
 20
96.19535855400485
 30
0.0
 10
26.84716468270173
 20
96.19535855400485
 30
0.0
 10
26.84716468270173
 20
96.19535855400485
 30
0.0
  0
SPLINE
  5
9B
330
A
100
AcDbEntity
  8
Livello 1
370
    15
100
AcDbSpline
210
0.0
220
0.0
230
1.0
 70
    27
 71
     3
 72
     8
 73
     4
 74
     0
 42
0.0000000001
 43
0.0000000001
 40
0.0
 40
0.0
 40
0.0
 40
0.0
 40
1.0
 40
1.0
 40
1.0
 40
1.0
 10
26.84716468270173
 20
96.19535855400485
 30
0.0
 10
26.84716468270173
 20
96.19535855400485
 30
0.0
 10
26.84716468270173
 20
96.19535855400485
 30
0.0
 10
26.84716468270173
 20
96.19535855400485
 30
0.0
  0
SPLINE
  5
9C
330
A
100
AcDbEntity
  8
Livello 1
370
    15
100
AcDbSpline
210
0.0
220
0.0
230
1.0
 70
    24
 71
     3
 72
     8
 73
     4
 74
     0
 42
0.0000000001
 43
0.0000000001
 40
0.0
 40
0.0
 40
0.0
 40
0.0
 40
1.0
 40
1.0
 40
1.0
 40
1.0
 10
26.33916468270172
 20
96.39855855400483
 30
0.0
 10
26.33916468270172
 20
96.39855855400483
 30
0.0
 10
26.44076468270174
 20
96.39855855400483
 30
0.0
 10
26.44076468270174
 20
96.39855855400483
 30
0.0
  0
SPLINE
  5
9D
330
A
100
AcDbEntity
  8
Livello 1
370
    15
100
AcDbSpline
210
0.0
220
0.0
230
1.0
 70
    27
 71
     3
 72
     8
 73
     4
 74
     0
 42
0.0000000001
 43
0.0000000001
 40
0.0
 40
0.0
 40
0.0
 40
0.0
 40
1.0
 40
1.0
 40
1.0
 40
1.0
 10
26.84716468270173
 20
96.19535855400485
 30
0.0
 10
26.84716468270173
 20
96.19535855400485
 30
0.0
 10
26.84716468270173
 20
96.19535855400485
 30
0.0
 10
26.84716468270173
 20
96.19535855400485
 30
0.0
  0
SPLINE
  5
9E
330
A
100
AcDbEntity
  8
Livello 1
370
    15
100
AcDbSpline
210
0.0
220
0.0
230
1.0
 70
    27
 71
     3
 72
     8
 73
     4
 74
     0
 42
0.0000000001
 43
0.0000000001
 40
0.0
 40
0.0
 40
0.0
 40
0.0
 40
1.0
 40
1.0
 40
1.0
 40
1.0
 10
26.84716468270173
 20
92.43615855400483
 30
0.0
 10
26.84716468270173
 20
92.43615855400483
 30
0.0
 10
26.84716468270173
 20
92.43615855400483
 30
0.0
 10
26.84716468270173
 20
92.43615855400483
 30
0.0
  0
SPLINE
  5
9F
330
A
100
AcDbEntity
  8
Livello 1
370
    15
100
AcDbSpline
210
0.0
220
0.0
230
1.0
 70
    24
 71
     3
 72
     8
 73
     4
 74
     0
 42
0.0000000001
 43
0.0000000001
 40
0.0
 40
0.0
 40
0.0
 40
0.0
 40
1.0
 40
1.0
 40
1.0
 40
1.0
 10
26.84716468270173
 20
96.19535855400485
 30
0.0
 10
26.84716468270173
 20
96.19535855400485
 30
0.0
 10
26.84716468270173
 20
92.43615855400483
 30
0.0
 10
26.84716468270173
 20
92.43615855400483
 30
0.0
  0
SPLINE
  5
A0
330
A
100
AcDbEntity
  8
Livello 1
370
    15
100
AcDbSpline
210
0.0
220
0.0
230
1.0
 70
    27
 71
     3
 72
     8
 73
     4
 74
     0
 42
0.0000000001
 43
0.0000000001
 40
0.0
 40
0.0
 40
0.0
 40
0.0
 40
1.0
 40
1.0
 40
1.0
 40
1.0
 10
26.33916468270172
 20
96.39855855400483
 30
0.0
 10
26.33916468270172
 20
96.39855855400483
 30
0.0
 10
26.33916468270172
 20
96.39855855400483
 30
0.0
 10
26.33916468270172
 20
96.39855855400483
 30
0.0
  0
SPLINE
  5
A1
330
A
100
AcDbEntity
  8
Livello 1
370
    15
100
AcDbSpline
210
0.0
220
0.0
230
1.0
 70
    27
 71
     3
 72
     8
 73
     4
 74
     0
 42
0.0000000001
 43
0.0000000001
 40
0.0
 40
0.0
 40
0.0
 40
0.0
 40
1.0
 40
1.0
 40
1.0
 40
1.0
 10
26.33916468270172
 20
96.39855855400483
 30
0.0
 10
26.33916468270172
 20
96.39855855400483
 30
0.0
 10
26.33916468270172
 20
96.39855855400483
 30
0.0
 10
26.33916468270172
 20
96.39855855400483
 30
0.0
  0
SPLINE
  5
A2
330
A
100
AcDbEntity
  8
Livello 1
370
    15
100
AcDbSpline
210
0.0
220
0.0
230
1.0
 70
    27
 71
     3
 72
     8
 73
     4
 74
     0
 42
0.0000000001
 43
0.0000000001
 40
0.0
 40
0.0
 40
0.0
 40
0.0
 40
1.0
 40
1.0
 40
1.0
 40
1.0
 10
26.33916468270172
 20
96.39855855400483
 30
0.0
 10
26.33916468270172
 20
96.39855855400483
 30
0.0
 10
26.33916468270172
 20
96.39855855400483
 30
0.0
 10
26.33916468270172
 20
96.39855855400483
 30
0.0
  0
SPLINE
  5
A3
330
A
100
AcDbEntity
  8
Livello 1
370
    15
100
AcDbSpline
210
0.0
220
0.0
230
1.0
 70
    27
 71
     3
 72
     8
 73
     4
 74
     0
 42
0.0000000001
 43
0.0000000001
 40
0.0
 40
0.0
 40
0.0
 40
0.0
 40
1.0
 40
1.0
 40
1.0
 40
1.0
 10
26.33916468270172
 20
96.39855855400483
 30
0.0
 10
26.33916468270172
 20
96.39855855400483
 30
0.0
 10
26.33916468270172
 20
96.39855855400483
 30
0.0
 10
26.33916468270172
 20
96.39855855400483
 30
0.0
  0
SPLINE
  5
A4
330
A
100
AcDbEntity
  8
Livello 1
370
    15
100
AcDbSpline
210
0.0
220
0.0
230
1.0
 70
    27
 71
     3
 72
     8
 73
     4
 74
     0
 42
0.0000000001
 43
0.0000000001
 40
0.0
 40
0.0
 40
0.0
 40
0.0
 40
1.0
 40
1.0
 40
1.0
 40
1.0
 10
26.84716468270173
 20
96.19535855400485
 30
0.0
 10
26.84716468270173
 20
96.19535855400485
 30
0.0
 10
26.84716468270173
 20
96.19535855400485
 30
0.0
 10
26.84716468270173
 20
96.19535855400485
 30
0.0
  0
SPLINE
  5
A5
330
A
100
AcDbEntity
  8
Livello 1
370
    15
100
AcDbSpline
210
0.0
220
0.0
230
1.0
 70
    27
 71
     3
 72
     8
 73
     4
 74
     0
 42
0.0000000001
 43
0.0000000001
 40
0.0
 40
0.0
 40
0.0
 40
0.0
 40
1.0
 40
1.0
 40
1.0
 40
1.0
 10
26.84716468270173
 20
92.43615855400483
 30
0.0
 10
26.84716468270173
 20
92.43615855400483
 30
0.0
 10
26.84716468270173
 20
92.43615855400483
 30
0.0
 10
26.84716468270173
 20
92.43615855400483
 30
0.0
  0
SPLINE
  5
A6
330
A
100
AcDbEntity
  8
Livello 1
370
    15
100
AcDbSpline
210
0.0
220
0.0
230
1.0
 70
    24
 71
     3
 72
     8
 73
     4
 74
     0
 42
0.0000000001
 43
0.0000000001
 40
0.0
 40
0.0
 40
0.0
 40
0.0
 40
1.0
 40
1.0
 40
1.0
 40
1.0
 10
26.84716468270173
 20
96.19535855400485
 30
0.0
 10
26.84716468270173
 20
96.19535855400485
 30
0.0
 10
26.84716468270173
 20
92.43615855400483
 30
0.0
 10
26.84716468270173
 20
92.43615855400483
 30
0.0
  0
SPLINE
  5
A7
330
A
100
AcDbEntity
  8
Livello 1
370
    15
100
AcDbSpline
210
0.0
220
0.0
230
1.0
 70
    24
 71
     3
 72
     8
 73
     4
 74
     0
 42
0.0000000001
 43
0.0000000001
 40
0.0
 40
0.0
 40
0.0
 40
0.0
 40
1.0
 40
1.0
 40
1.0
 40
1.0
 10
26.23756468270173
 20
96.39855855400483
 30
0.0
 10
26.23756468270173
 20
96.39855855400483
 30
0.0
 10
26.33916468270172
 20
96.39855855400483
 30
0.0
 10
26.33916468270172
 20
96.39855855400483
 30
0.0
  0
SPLINE
  5
A8
330
A
100
AcDbEntity
  8
Livello 1
370
    15
100
AcDbSpline
210
0.0
220
0.0
230
1.0
 70
    27
 71
     3
 72
     8
 73
     4
 74
     0
 42
0.0000000001
 43
0.0000000001
 40
0.0
 40
0.0
 40
0.0
 40
0.0
 40
1.0
 40
1.0
 40
1.0
 40
1.0
 10
26.84716468270173
 20
92.43615855400483
 30
0.0
 10
26.84716468270173
 20
92.43615855400483
 30
0.0
 10
26.84716468270173
 20
92.43615855400483
 30
0.0
 10
26.84716468270173
 20
92.43615855400483
 30
0.0
  0
SPLINE
  5
A9
330
A
100
AcDbEntity
  8
Livello 1
370
    15
100
AcDbSpline
210
0.0
220
0.0
230
1.0
 70
    24
 71
     3
 72
     8
 73
     4
 74
     0
 42
0.0000000001
 43
0.0000000001
 40
0.0
 40
0.0
 40
0.0
 40
0.0
 40
1.0
 40
1.0
 40
1.0
 40
1.0
 10
26.84716468270173
 20
96.09375855400484
 30
0.0
 10
26.84716468270173
 20
96.09375855400484
 30
0.0
 10
26.84716468270173
 20
96.19535855400485
 30
0.0
 10
26.84716468270173
 20
96.19535855400485
 30
0.0
  0
SPLINE
  5
AA
330
A
100
AcDbEntity
  8
Livello 1
370
    15
100
AcDbSpline
210
0.0
220
0.0
230
1.0
 70
    27
 71
     3
 72
     8
 73
     4
 74
     0
 42
0.0000000001
 43
0.0000000001
 40
0.0
 40
0.0
 40
0.0
 40
0.0
 40
1.0
 40
1.0
 40
1.0
 40
1.0
 10
26.84716468270173
 20
92.43615855400483
 30
0.0
 10
26.84716468270173
 20
92.43615855400483
 30
0.0
 10
26.84716468270173
 20
92.43615855400483
 30
0.0
 10
26.84716468270173
 20
92.43615855400483
 30
0.0
  0
SPLINE
  5
AB
330
A
100
AcDbEntity
  8
Livello 1
370
    15
100
AcDbSpline
210
0.0
220
0.0
230
1.0
 70
    27
 71
     3
 72
     8
 73
     4
 74
     0
 42
0.0000000001
 43
0.0000000001
 40
0.0
 40
0.0
 40
0.0
 40
0.0
 40
1.0
 40
1.0
 40
1.0
 40
1.0
 10
26.84716468270173
 20
96.09375855400484
 30
0.0
 10
26.84716468270173
 20
96.09375855400484
 30
0.0
 10
26.84716468270173
 20
96.09375855400484
 30
0.0
 10
26.84716468270173
 20
96.09375855400484
 30
0.0
  0
SPLINE
  5
AC
330
A
100
AcDbEntity
  8
Livello 1
370
    15
100
AcDbSpline
210
0.0
220
0.0
230
1.0
 70
    24
 71
     3
 72
     8
 73
     4
 74
     0
 42
0.0000000001
 43
0.0000000001
 40
0.0
 40
0.0
 40
0.0
 40
0.0
 40
1.0
 40
1.0
 40
1.0
 40
1.0
 10
26.74556468270171
 20
96.09375855400484
 30
0.0
 10
26.74556468270171
 20
96.09375855400484
 30
0.0
 10
26.84716468270173
 20
96.09375855400484
 30
0.0
 10
26.84716468270173
 20
96.09375855400484
 30
0.0
  0
SPLINE
  5
AD
330
A
100
AcDbEntity
  8
Livello 1
370
    15
100
AcDbSpline
210
0.0
220
0.0
230
1.0
 70
    24
 71
     3
 72
     8
 73
     4
 74
     0
 42
0.0000000001
 43
0.0000000001
 40
0.0
 40
0.0
 40
0.0
 40
0.0
 40
1.0
 40
1.0
 40
1.0
 40
1.0
 10
26.84716468270173
 20
92.43615855400483
 30
0.0
 10
26.84716468270173
 20
92.43615855400483
 30
0.0
 10
26.74556468270171
 20
92.33455855400482
 30
0.0
 10
26.74556468270171
 20
92.33455855400482
 30
0.0
  0
SPLINE
  5
AE
330
A
100
AcDbEntity
  8
Livello 1
370
    15
100
AcDbSpline
210
0.0
220
0.0
230
1.0
 70
    27
 71
     3
 72
     8
 73
     4
 74
     0
 42
0.0000000001
 43
0.0000000001
 40
0.0
 40
0.0
 40
0.0
 40
0.0
 40
1.0
 40
1.0
 40
1.0
 40
1.0
 10
26.74556468270171
 20
92.33455855400482
 30
0.0
 10
26.74556468270171
 20
92.33455855400482
 30
0.0
 10
26.74556468270171
 20
92.33455855400482
 30
0.0
 10
26.74556468270171
 20
92.33455855400482
 30
0.0
  0
SPLINE
  5
AF
330
A
100
AcDbEntity
  8
Livello 1
370
    15
100
AcDbSpline
210
0.0
220
0.0
230
1.0
 70
    27
 71
     3
 72
     8
 73
     4
 74
     0
 42
0.0000000001
 43
0.0000000001
 40
0.0
 40
0.0
 40
0.0
 40
0.0
 40
1.0
 40
1.0
 40
1.0
 40
1.0
 10
26.74556468270171
 20
96.09375855400484
 30
0.0
 10
26.74556468270171
 20
96.09375855400484
 30
0.0
 10
26.74556468270171
 20
96.09375855400484
 30
0.0
 10
26.74556468270171
 20
96.09375855400484
 30
0.0
  0
SPLINE
  5
B0
330
A
100
AcDbEntity
  8
Livello 1
370
    15
100
AcDbSpline
210
0.0
220
0.0
230
1.0
 70
    27
 71
     3
 72
     8
 73
     4
 74
     0
 42
0.0000000001
 43
0.0000000001
 40
0.0
 40
0.0
 40
0.0
 40
0.0
 40
1.0
 40
1.0
 40
1.0
 40
1.0
 10
26.74556468270171
 20
92.33455855400482
 30
0.0
 10
26.74556468270171
 20
92.33455855400482
 30
0.0
 10
26.74556468270171
 20
92.33455855400482
 30
0.0
 10
26.74556468270171
 20
92.33455855400482
 30
0.0
  0
SPLINE
  5
B1
330
A
100
AcDbEntity
  8
Livello 1
370
    15
100
AcDbSpline
210
0.0
220
0.0
230
1.0
 70
    27
 71
     3
 72
     8
 73
     4
 74
     0
 42
0.0000000001
 43
0.0000000001
 40
0.0
 40
0.0
 40
0.0
 40
0.0
 40
1.0
 40
1.0
 40
1.0
 40
1.0
 10
26.74556468270171
 20
96.09375855400484
 30
0.0
 10
26.74556468270171
 20
96.09375855400484
 30
0.0
 10
26.74556468270171
 20
96.09375855400484
 30
0.0
 10
26.74556468270171
 20
96.09375855400484
 30
0.0
  0
SPLINE
  5
B2
330
A
100
AcDbEntity
  8
Livello 1
370
    15
100
AcDbSpline
210
0.0
220
0.0
230
1.0
 70
    27
 71
     3
 72
     8
 73
     4
 74
     0
 42
0.0000000001
 43
0.0000000001
 40
0.0
 40
0.0
 40
0.0
 40
0.0
 40
1.0
 40
1.0
 40
1.0
 40
1.0
 10
26.74556468270171
 20
92.33455855400482
 30
0.0
 10
26.74556468270171
 20
92.33455855400482
 30
0.0
 10
26.74556468270171
 20
92.33455855400482
 30
0.0
 10
26.74556468270171
 20
92.33455855400482
 30
0.0
  0
SPLINE
  5
B3
330
A
100
AcDbEntity
  8
Livello 1
370
    15
100
AcDbSpline
210
0.0
220
0.0
230
1.0
 70
    27
 71
     3
 72
     8
 73
     4
 74
     0
 42
0.0000000001
 43
0.0000000001
 40
0.0
 40
0.0
 40
0.0
 40
0.0
 40
1.0
 40
1.0
 40
1.0
 40
1.0
 10
26.74556468270171
 20
96.09375855400484
 30
0.0
 10
26.74556468270171
 20
96.09375855400484
 30
0.0
 10
26.74556468270171
 20
96.09375855400484
 30
0.0
 10
26.74556468270171
 20
96.09375855400484
 30
0.0
  0
SPLINE
  5
B4
330
A
100
AcDbEntity
  8
Livello 1
370
    15
100
AcDbSpline
210
0.0
220
0.0
230
1.0
 70
    24
 71
     3
 72
     8
 73
     4
 74
     0
 42
0.0000000001
 43
0.0000000001
 40
0.0
 40
0.0
 40
0.0
 40
0.0
 40
1.0
 40
1.0
 40
1.0
 40
1.0
 10
26.74556468270171
 20
95.99215855400482
 30
0.0
 10
26.74556468270171
 20
95.99215855400482
 30
0.0
 10
26.74556468270171
 20
96.09375855400484
 30
0.0
 10
26.74556468270171
 20
96.09375855400484
 30
0.0
  0
SPLINE
  5
B5
330
A
100
AcDbEntity
  8
Livello 1
370
    15
100
AcDbSpline
210
0.0
220
0.0
230
1.0
 70
    24
 71
     3
 72
     8
 73
     4
 74
     0
 42
0.0000000001
 43
0.0000000001
 40
0.0
 40
0.0
 40
0.0
 40
0.0
 40
1.0
 40
1.0
 40
1.0
 40
1.0
 10
26.74556468270171
 20
92.33455855400482
 30
0.0
 10
26.74556468270171
 20
92.33455855400482
 30
0.0
 10
26.74556468270171
 20
92.23295855400484
 30
0.0
 10
26.74556468270171
 20
92.23295855400484
 30
0.0
  0
SPLINE
  5
B6
330
A
100
AcDbEntity
  8
Livello 1
370
    15
100
AcDbSpline
210
0.0
220
0.0
230
1.0
 70
    24
 71
     3
 72
     8
 73
     4
 74
     0
 42
0.0000000001
 43
0.0000000001
 40
0.0
 40
0.0
 40
0.0
 40
0.0
 40
1.0
 40
1.0
 40
1.0
 40
1.0
 10
21.46236468270172
 20
94.56975855400484
 30
0.0
 10
21.46236468270172
 20
94.56975855400484
 30
0.0
 10
21.46236468270172
 20
95.48415855400483
 30
0.0
 10
21.46236468270172
 20
95.48415855400483
 30
0.0
  0
SPLINE
  5
B7
330
A
100
AcDbEntity
  8
Livello 1
370
    15
100
AcDbSpline
210
0.0
220
0.0
230
1.0
 70
    24
 71
     3
 72
     8
 73
     4
 74
     0
 42
0.0000000001
 43
0.0000000001
 40
0.0
 40
0.0
 40
0.0
 40
0.0
 40
1.0
 40
1.0
 40
1.0
 40
1.0
 10
22.57996468270171
 20
96.09375855400484
 30
0.0
 10
22.57996468270171
 20
96.09375855400484
 30
0.0
 10
26.23756468270173
 20
96.39855855400483
 30
0.0
 10
26.23756468270173
 20
96.39855855400483
 30
0.0
  0
SPLINE
  5
B8
330
A
100
AcDbEntity
  8
Livello 1
370
    15
100
AcDbSpline
210
0.0
220
0.0
230
1.0
 70
    24
 71
     3
 72
     8
 73
     4
 74
     0
 42
0.0000000001
 43
0.0000000001
 40
0.0
 40
0.0
 40
0.0
 40
0.0
 40
1.0
 40
1.0
 40
1.0
 40
1.0
 10
22.68156468270168
 20
95.17935855400484
 30
0.0
 10
22.68156468270168
 20
95.17935855400484
 30
0.0
 10
22.07196468270168
 20
95.48415855400483
 30
0.0
 10
22.07196468270168
 20
95.48415855400483
 30
0.0
  0
SPLINE
  5
B9
330
A
100
AcDbEntity
  8
Livello 1
370
    15
100
AcDbSpline
210
0.0
220
0.0
230
1.0
 70
    24
 71
     3
 72
     8
 73
     4
 74
     0
 42
0.0000000001
 43
0.0000000001
 40
0.0
 40
0.0
 40
0.0
 40
0.0
 40
1.0
 40
1.0
 40
1.0
 40
1.0
 10
15.36636468270171
 20
91.21695855400485
 30
0.0
 10
15.36636468270171
 20
91.21695855400485
 30
0.0
 10
22.68156468270168
 20
95.17935855400484
 30
0.0
 10
22.68156468270168
 20
95.17935855400484
 30
0.0
  0
SPLINE
  5
BA
330
A
100
AcDbEntity
  8
Livello 1
370
    15
100
AcDbSpline
210
0.0
220
0.0
230
1.0
 70
    24
 71
     3
 72
     8
 73
     4
 74
     0
 42
0.0000000001
 43
0.0000000001
 40
0.0
 40
0.0
 40
0.0
 40
0.0
 40
1.0
 40
1.0
 40
1.0
 40
1.0
 10
16.07756468270173
 20
90.30255855400485
 30
0.0
 10
16.07756468270173
 20
90.30255855400485
 30
0.0
 10
26.74556468270171
 20
95.99215855400482
 30
0.0
 10
26.74556468270171
 20
95.99215855400482
 30
0.0
  0
SPLINE
  5
BB
330
A
100
AcDbEntity
  8
Livello 1
370
    15
100
AcDbSpline
210
0.0
220
0.0
230
1.0
 70
    24
 71
     3
 72
     8
 73
     4
 74
     0
 42
0.0000000001
 43
0.0000000001
 40
0.0
 40
0.0
 40
0.0
 40
0.0
 40
1.0
 40
1.0
 40
1.0
 40
1.0
 10
15.36636468270171
 20
89.99775855400486
 30
0.0
 10
15.36636468270171
 20
89.99775855400486
 30
0.0
 10
16.07756468270173
 20
90.30255855400485
 30
0.0
 10
16.07756468270173
 20
90.30255855400485
 30
0.0
  0
SPLINE
  5
BC
330
A
100
AcDbEntity
  8
Livello 1
370
    15
100
AcDbSpline
210
0.0
220
0.0
230
1.0
 70
    24
 71
     3
 72
     8
 73
     4
 74
     0
 42
0.0000000001
 43
0.0000000001
 40
0.0
 40
0.0
 40
0.0
 40
0.0
 40
1.0
 40
1.0
 40
1.0
 40
1.0
 10
16.07756468270173
 20
84.3081585540048
 30
0.0
 10
16.07756468270173
 20
84.3081585540048
 30
0.0
 10
15.1631646827017
 20
83.59695855400483
 30
0.0
 10
15.1631646827017
 20
83.59695855400483
 30
0.0
  0
SPLINE
  5
BD
330
A
100
AcDbEntity
  8
Livello 1
370
    15
100
AcDbSpline
210
0.0
220
0.0
230
1.0
 70
     8
 71
     3
 72
    12
 73
     8
 74
     0
 42
0.0000000001
 43
0.0000000001
 40
0.0
 40
0.0
 40
0.0
 40
0.0
 40
0.5
 40
0.5
 40
0.5
 40
0.5
 40
1.0
 40
1.0
 40
1.0
 40
1.0
 10
26.74556468270171
 20
92.23295855400484
 30
0.0
 10
26.74556468270171
 20
92.23295855400484
 30
0.0
 10
16.07756468270173
 20
84.3081585540048
 30
0.0
 10
16.07756468270173
 20
84.3081585540048
 30
0.0
 10
16.07756468270173
 20
84.3081585540048
 30
0.0
 10
16.07756468270173
 20
84.3081585540048
 30
0.0
 10
15.1631646827017
 20
83.59695855400483
 30
0.0
 10
15.1631646827017
 20
83.59695855400483
 30
0.0
  0
SPLINE
  5
BE
330
A
100
AcDbEntity
  8
Livello 1
370
    15
100
AcDbSpline
210
0.0
220
0.0
230
1.0
 70
    24
 71
     3
 72
     8
 73
     4
 74
     0
 42
0.0000000001
 43
0.0000000001
 40
0.0
 40
0.0
 40
0.0
 40
0.0
 40
1.0
 40
1.0
 40
1.0
 40
1.0
 10
26.74556468270171
 20
92.23295855400484
 30
0.0
 10
26.74556468270171
 20
92.23295855400484
 30
0.0
 10
16.07756468270173
 20
84.3081585540048
 30
0.0
 10
16.07756468270173
 20
84.3081585540048
 30
0.0
  0
SPLINE
  5
BF
330
A
100
AcDbEntity
  8
Livello 1
370
    15
100
AcDbSpline
210
0.0
220
0.0
230
1.0
 70
    24
 71
     3
 72
     8
 73
     4
 74
     0
 42
0.0000000001
 43
0.0000000001
 40
0.0
 40
0.0
 40
0.0
 40
0.0
 40
1.0
 40
1.0
 40
1.0
 40
1.0
 10
16.07756468270173
 20
90.30255855400485
 30
0.0
 10
16.07756468270173
 20
90.30255855400485
 30
0.0
 10
15.36636468270171
 20
89.99775855400486
 30
0.0
 10
15.36636468270171
 20
89.99775855400486
 30
0.0
  0
SPLINE
  5
C0
330
A
100
AcDbEntity
  8
Livello 1
370
    15
100
AcDbSpline
210
0.0
220
0.0
230
1.0
 70
    24
 71
     3
 72
     8
 73
     4
 74
     0
 42
0.0000000001
 43
0.0000000001
 40
0.0
 40
0.0
 40
0.0
 40
0.0
 40
1.0
 40
1.0
 40
1.0
 40
1.0
 10
26.74556468270171
 20
95.99215855400482
 30
0.0
 10
26.74556468270171
 20
95.99215855400482
 30
0.0
 10
16.07756468270173
 20
90.30255855400485
 30
0.0
 10
16.07756468270173
 20
90.30255855400485
 30
0.0
  0
SPLINE
  5
C1
330
A
100
AcDbEntity
  8
Livello 1
370
    15
100
AcDbSpline
210
0.0
220
0.0
230
1.0
 70
    24
 71
     3
 72
     8
 73
     4
 74
     0
 42
0.0000000001
 43
0.0000000001
 40
0.0
 40
0.0
 40
0.0
 40
0.0
 40
1.0
 40
1.0
 40
1.0
 40
1.0
 10
26.74556468270171
 20
96.09375855400484
 30
0.0
 10
26.74556468270171
 20
96.09375855400484
 30
0.0
 10
26.74556468270171
 20
95.99215855400482
 30
0.0
 10
26.74556468270171
 20
95.99215855400482
 30
0.0
  0
SPLINE
  5
C2
330
A
100
AcDbEntity
  8
Livello 1
370
    15
100
AcDbSpline
210
0.0
220
0.0
230
1.0
 70
    24
 71
     3
 72
     8
 73
     4
 74
     0
 42
0.0000000001
 43
0.0000000001
 40
0.0
 40
0.0
 40
0.0
 40
0.0
 40
1.0
 40
1.0
 40
1.0
 40
1.0
 10
26.84716468270173
 20
96.19535855400485
 30
0.0
 10
26.84716468270173
 20
96.19535855400485
 30
0.0
 10
26.74556468270171
 20
96.09375855400484
 30
0.0
 10
26.74556468270171
 20
96.09375855400484
 30
0.0
  0
SPLINE
  5
C3
330
A
100
AcDbEntity
  8
Livello 1
370
    15
100
AcDbSpline
210
0.0
220
0.0
230
1.0
 70
    27
 71
     3
 72
     8
 73
     4
 74
     0
 42
0.0000000001
 43
0.0000000001
 40
0.0
 40
0.0
 40
0.0
 40
0.0
 40
1.0
 40
1.0
 40
1.0
 40
1.0
 10
26.84716468270173
 20
96.19535855400485
 30
0.0
 10
26.84716468270173
 20
96.19535855400485
 30
0.0
 10
26.84716468270173
 20
96.19535855400485
 30
0.0
 10
26.84716468270173
 20
96.19535855400485
 30
0.0
  0
SPLINE
  5
C4
330
A
100
AcDbEntity
  8
Livello 1
370
    15
100
AcDbSpline
210
0.0
220
0.0
230
1.0
 70
    24
 71
     3
 72
     8
 73
     4
 74
     0
 42
0.0000000001
 43
0.0000000001
 40
0.0
 40
0.0
 40
0.0
 40
0.0
 40
1.0
 40
1.0
 40
1.0
 40
1.0
 10
26.74556468270171
 20
96.29695855400484
 30
0.0
 10
26.74556468270171
 20
96.29695855400484
 30
0.0
 10
26.84716468270173
 20
96.19535855400485
 30
0.0
 10
26.84716468270173
 20
96.19535855400485
 30
0.0
  0
SPLINE
  5
C5
330
A
100
AcDbEntity
  8
Livello 1
370
    15
100
AcDbSpline
210
0.0
220
0.0
230
1.0
 70
    24
 71
     3
 72
     8
 73
     4
 74
     0
 42
0.0000000001
 43
0.0000000001
 40
0.0
 40
0.0
 40
0.0
 40
0.0
 40
1.0
 40
1.0
 40
1.0
 40
1.0
 10
26.74556468270171
 20
96.39855855400483
 30
0.0
 10
26.74556468270171
 20
96.39855855400483
 30
0.0
 10
26.74556468270171
 20
96.29695855400484
 30
0.0
 10
26.74556468270171
 20
96.29695855400484
 30
0.0
  0
SPLINE
  5
C6
330
A
100
AcDbEntity
  8
Livello 1
370
    15
100
AcDbSpline
210
0.0
220
0.0
230
1.0
 70
    24
 71
     3
 72
     8
 73
     4
 74
     0
 42
0.0000000001
 43
0.0000000001
 40
0.0
 40
0.0
 40
0.0
 40
0.0
 40
1.0
 40
1.0
 40
1.0
 40
1.0
 10
26.64396468270172
 20
96.39855855400483
 30
0.0
 10
26.64396468270172
 20
96.39855855400483
 30
0.0
 10
26.74556468270171
 20
96.39855855400483
 30
0.0
 10
26.74556468270171
 20
96.39855855400483
 30
0.0
  0
SPLINE
  5
C7
330
A
100
AcDbEntity
  8
Livello 1
370
    15
100
AcDbSpline
210
0.0
220
0.0
230
1.0
 70
    24
 71
     3
 72
     8
 73
     4
 74
     0
 42
0.0000000001
 43
0.0000000001
 40
0.0
 40
0.0
 40
0.0
 40
0.0
 40
1.0
 40
1.0
 40
1.0
 40
1.0
 10
26.54236468270173
 20
96.39855855400483
 30
0.0
 10
26.54236468270173
 20
96.39855855400483
 30
0.0
 10
26.64396468270172
 20
96.39855855400483
 30
0.0
 10
26.64396468270172
 20
96.39855855400483
 30
0.0
  0
SPLINE
  5
C8
330
A
100
AcDbEntity
  8
Livello 1
370
    15
100
AcDbSpline
210
0.0
220
0.0
230
1.0
 70
    24
 71
     3
 72
     8
 73
     4
 74
     0
 42
0.0000000001
 43
0.0000000001
 40
0.0
 40
0.0
 40
0.0
 40
0.0
 40
1.0
 40
1.0
 40
1.0
 40
1.0
 10
26.33916468270172
 20
96.39855855400483
 30
0.0
 10
26.33916468270172
 20
96.39855855400483
 30
0.0
 10
26.54236468270173
 20
96.39855855400483
 30
0.0
 10
26.54236468270173
 20
96.39855855400483
 30
0.0
  0
SPLINE
  5
C9
330
A
100
AcDbEntity
  8
Livello 1
370
    15
100
AcDbSpline
210
0.0
220
0.0
230
1.0
 70
    24
 71
     3
 72
     8
 73
     4
 74
     0
 42
0.0000000001
 43
0.0000000001
 40
0.0
 40
0.0
 40
0.0
 40
0.0
 40
1.0
 40
1.0
 40
1.0
 40
1.0
 10
26.23756468270173
 20
96.39855855400483
 30
0.0
 10
26.23756468270173
 20
96.39855855400483
 30
0.0
 10
26.33916468270172
 20
96.39855855400483
 30
0.0
 10
26.33916468270172
 20
96.39855855400483
 30
0.0
  0
SPLINE
  5
CA
330
A
100
AcDbEntity
  8
Livello 1
370
    15
100
AcDbSpline
210
0.0
220
0.0
230
1.0
 70
    24
 71
     3
 72
     8
 73
     4
 74
     0
 42
0.0000000001
 43
0.0000000001
 40
0.0
 40
0.0
 40
0.0
 40
0.0
 40
1.0
 40
1.0
 40
1.0
 40
1.0
 10
15.1631646827017
 20
83.59695855400483
 30
0.0
 10
15.1631646827017
 20
83.59695855400483
 30
0.0
 10
14.75676468270171
 20
83.39375855400485
 30
0.0
 10
14.75676468270171
 20
83.39375855400485
 30
0.0
  0
SPLINE
  5
CB
330
A
100
AcDbEntity
  8
Livello 1
370
    15
100
AcDbSpline
210
0.0
220
0.0
230
1.0
 70
    24
 71
     3
 72
     8
 73
     4
 74
     0
 42
0.0000000001
 43
0.0000000001
 40
0.0
 40
0.0
 40
0.0
 40
0.0
 40
1.0
 40
1.0
 40
1.0
 40
1.0
 10
15.36636468270171
 20
90.09935855400483
 30
0.0
 10
15.36636468270171
 20
90.09935855400483
 30
0.0
 10
15.36636468270171
 20
89.89615855400488
 30
0.0
 10
15.36636468270171
 20
89.89615855400488
 30
0.0
  0
SPLINE
  5
CC
330
A
100
AcDbEntity
  8
Livello 1
370
    15
100
AcDbSpline
210
0.0
220
0.0
230
1.0
 70
    24
 71
     3
 72
     8
 73
     4
 74
     0
 42
0.0000000001
 43
0.0000000001
 40
0.0
 40
0.0
 40
0.0
 40
0.0
 40
1.0
 40
1.0
 40
1.0
 40
1.0
 10
14.75676468270171
 20
83.39375855400485
 30
0.0
 10
14.75676468270171
 20
83.39375855400485
 30
0.0
 10
14.35036468270171
 20
83.19055855400483
 30
0.0
 10
14.35036468270171
 20
83.19055855400483
 30
0.0
  0
SPLINE
  5
CD
330
A
100
AcDbEntity
  8
Livello 1
370
    15
100
AcDbSpline
210
0.0
220
0.0
230
1.0
 70
    24
 71
     3
 72
     8
 73
     4
 74
     0
 42
0.0000000001
 43
0.0000000001
 40
0.0
 40
0.0
 40
0.0
 40
0.0
 40
1.0
 40
1.0
 40
1.0
 40
1.0
 10
15.36636468270171
 20
90.30255855400485
 30
0.0
 10
15.36636468270171
 20
90.30255855400485
 30
0.0
 10
15.36636468270171
 20
90.09935855400483
 30
0.0
 10
15.36636468270171
 20
90.09935855400483
 30
0.0
  0
SPLINE
  5
CE
330
A
100
AcDbEntity
  8
Livello 1
370
    15
100
AcDbSpline
210
0.0
220
0.0
230
1.0
 70
    24
 71
     3
 72
     8
 73
     4
 74
     0
 42
0.0000000001
 43
0.0000000001
 40
0.0
 40
0.0
 40
0.0
 40
0.0
 40
1.0
 40
1.0
 40
1.0
 40
1.0
 10
15.1631646827017
 20
83.59695855400483
 30
0.0
 10
15.1631646827017
 20
83.59695855400483
 30
0.0
 10
14.75676468270171
 20
83.39375855400485
 30
0.0
 10
14.75676468270171
 20
83.39375855400485
 30
0.0
  0
SPLINE
  5
CF
330
A
100
AcDbEntity
  8
Livello 1
370
    15
100
AcDbSpline
210
0.0
220
0.0
230
1.0
 70
     8
 71
     3
 72
    12
 73
     8
 74
     0
 42
0.0000000001
 43
0.0000000001
 40
0.0
 40
0.0
 40
0.0
 40
0.0
 40
0.5
 40
0.5
 40
0.5
 40
0.5
 40
1.0
 40
1.0
 40
1.0
 40
1.0
 10
14.35036468270171
 20
83.19055855400483
 30
0.0
 10
14.35036468270171
 20
83.19055855400483
 30
0.0
 10
13.43596468270171
 20
82.78415855400485
 30
0.0
 10
13.43596468270171
 20
82.78415855400485
 30
0.0
 10
13.43596468270171
 20
82.78415855400485
 30
0.0
 10
13.43596468270171
 20
82.78415855400485
 30
0.0
 10
12.62316468270171
 20
82.58095855400481
 30
0.0
 10
12.62316468270171
 20
82.58095855400481
 30
0.0
  0
SPLINE
  5
D0
330
A
100
AcDbEntity
  8
Livello 1
370
    15
100
AcDbSpline
210
0.0
220
0.0
230
1.0
 70
     8
 71
     3
 72
    12
 73
     8
 74
     0
 42
0.0000000001
 43
0.0000000001
 40
0.0
 40
0.0
 40
0.0
 40
0.0
 40
0.5
 40
0.5
 40
0.5
 40
0.5
 40
1.0
 40
1.0
 40
1.0
 40
1.0
 10
22.68156468270168
 20
81.97135855400484
 30
0.0
 10
22.68156468270168
 20
81.97135855400484
 30
0.0
 10
22.68156468270168
 20
71.30335855400483
 30
0.0
 10
22.68156468270168
 20
71.30335855400483
 30
0.0
 10
22.68156468270168
 20
71.30335855400483
 30
0.0
 10
22.68156468270168
 20
71.30335855400483
 30
0.0
 10
22.78316468270174
 20
70.18575855400484
 30
0.0
 10
21.56396468270174
 20
69.16975855400483
 30
0.0
  0
SPLINE
  5
D1
330
A
100
AcDbEntity
  8
Livello 1
370
    15
100
AcDbSpline
210
0.0
220
0.0
230
1.0
 70
     8
 71
     3
 72
    12
 73
     8
 74
     0
 42
0.0000000001
 43
0.0000000001
 40
0.0
 40
0.0
 40
0.0
 40
0.0
 40
0.5
 40
0.5
 40
0.5
 40
0.5
 40
1.0
 40
1.0
 40
1.0
 40
1.0
 10
-10.13523531729828
 20
128.0977585540048
 30
0.0
 10
-10.13523531729828
 20
128.0977585540048
 30
0.0
 10
-0.8896353172982854
 20
122.8145585540048
 30
0.0
 10
-0.8896353172982854
 20
122.8145585540048
 30
0.0
 10
-0.8896353172982854
 20
122.8145585540048
 30
0.0
 10
-0.8896353172982854
 20
122.8145585540048
 30
0.0
 10
0.2279646827017245
 20
122.2049585540048
 30
0.0
 10
-0.686435317298276
 20
121.4937585540048
 30
0.0
  0
SPLINE
  5
D2
330
A
100
AcDbEntity
  8
Livello 1
370
    15
100
AcDbSpline
210
0.0
220
0.0
230
1.0
 70
    27
 71
     3
 72
     8
 73
     4
 74
     0
 42
0.0000000001
 43
0.0000000001
 40
0.0
 40
0.0
 40
0.0
 40
0.0
 40
1.0
 40
1.0
 40
1.0
 40
1.0
 10
22.68156468270168
 20
71.20175855400484
 30
0.0
 10
22.68156468270168
 20
71.20175855400484
 30
0.0
 10
22.68156468270168
 20
71.20175855400484
 30
0.0
 10
22.68156468270168
 20
71.20175855400484
 30
0.0
  0
SPLINE
  5
D3
330
A
100
AcDbEntity
  8
Livello 1
370
    15
100
AcDbSpline
210
0.0
220
0.0
230
1.0
 70
     8
 71
     3
 72
    12
 73
     8
 74
     0
 42
0.0000000001
 43
0.0000000001
 40
0.0
 40
0.0
 40
0.0
 40
0.0
 40
0.5
 40
0.5
 40
0.5
 40
0.5
 40
1.0
 40
1.0
 40
1.0
 40
1.0
 10
-0.2800353172982852
 20
122.0017585540048
 30
0.0
 10
-0.2800353172982852
 20
122.0017585540048
 30
0.0
 10
-0.2800353172982852
 20
120.5793585540048
 30
0.0
 10
-0.2800353172982852
 20
120.5793585540048
 30
0.0
 10
-0.2800353172982852
 20
120.5793585540048
 30
0.0
 10
-0.2800353172982852
 20
120.5793585540048
 30
0.0
 10
-0.2800353172982852
 20
120.2745585540048
 30
0.0
 10
-0.686435317298276
 20
119.8681585540048
 30
0.0
  0
SPLINE
  5
D4
330
A
100
AcDbEntity
  8
Livello 1
370
    15
100
AcDbSpline
210
0.0
220
0.0
230
1.0
 70
    24
 71
     3
 72
     8
 73
     4
 74
     0
 42
0.0000000001
 43
0.0000000001
 40
0.0
 40
0.0
 40
0.0
 40
0.0
 40
1.0
 40
1.0
 40
1.0
 40
1.0
 10
20.95436468270168
 20
83.59695855400483
 30
0.0
 10
20.95436468270168
 20
83.59695855400483
 30
0.0
 10
22.2751646827017
 20
82.88575855400484
 30
0.0
 10
22.2751646827017
 20
82.88575855400484
 30
0.0
  0
SPLINE
  5
D5
330
A
100
AcDbEntity
  8
Livello 1
370
    15
100
AcDbSpline
210
0.0
220
0.0
230
1.0
 70
    24
 71
     3
 72
     8
 73
     4
 74
     0
 42
0.0000000001
 43
0.0000000001
 40
0.0
 40
0.0
 40
0.0
 40
0.0
 40
1.0
 40
1.0
 40
1.0
 40
1.0
 10
20.03996468270174
 20
72.82735855400483
 30
0.0
 10
20.03996468270174
 20
72.82735855400483
 30
0.0
 10
20.03996468270174
 20
79.12655855400481
 30
0.0
 10
20.03996468270174
 20
79.12655855400481
 30
0.0
  0
SPLINE
  5
D6
330
A
100
AcDbEntity
  8
Livello 1
370
    15
100
AcDbSpline
210
0.0
220
0.0
230
1.0
 70
    24
 71
     3
 72
     8
 73
     4
 74
     0
 42
0.0000000001
 43
0.0000000001
 40
0.0
 40
0.0
 40
0.0
 40
0.0
 40
1.0
 40
1.0
 40
1.0
 40
1.0
 10
21.46236468270172
 20
72.01455855400483
 30
0.0
 10
21.46236468270172
 20
72.01455855400483
 30
0.0
 10
21.46236468270172
 20
79.83775855400484
 30
0.0
 10
21.46236468270172
 20
79.83775855400484
 30
0.0
  0
SPLINE
  5
D7
330
A
100
AcDbEntity
  8
Livello 1
370
    15
100
AcDbSpline
210
0.0
220
0.0
230
1.0
 70
    24
 71
     3
 72
     8
 73
     4
 74
     0
 42
0.0000000001
 43
0.0000000001
 40
0.0
 40
0.0
 40
0.0
 40
0.0
 40
1.0
 40
1.0
 40
1.0
 40
1.0
 10
20.03996468270174
 20
72.82735855400483
 30
0.0
 10
20.03996468270174
 20
72.82735855400483
 30
0.0
 10
20.03996468270174
 20
79.12655855400481
 30
0.0
 10
20.03996468270174
 20
79.12655855400481
 30
0.0
  0
SPLINE
  5
D8
330
A
100
AcDbEntity
  8
Livello 1
370
    15
100
AcDbSpline
210
0.0
220
0.0
230
1.0
 70
    24
 71
     3
 72
     8
 73
     4
 74
     0
 42
0.0000000001
 43
0.0000000001
 40
0.0
 40
0.0
 40
0.0
 40
0.0
 40
1.0
 40
1.0
 40
1.0
 40
1.0
 10
21.46236468270172
 20
72.01455855400483
 30
0.0
 10
21.46236468270172
 20
72.01455855400483
 30
0.0
 10
20.03996468270174
 20
72.82735855400483
 30
0.0
 10
20.03996468270174
 20
72.82735855400483
 30
0.0
  0
SPLINE
  5
D9
330
A
100
AcDbEntity
  8
Livello 1
370
    15
100
AcDbSpline
210
0.0
220
0.0
230
1.0
 70
    24
 71
     3
 72
     8
 73
     4
 74
     0
 42
0.0000000001
 43
0.0000000001
 40
0.0
 40
0.0
 40
0.0
 40
0.0
 40
1.0
 40
1.0
 40
1.0
 40
1.0
 10
21.46236468270172
 20
79.83775855400484
 30
0.0
 10
21.46236468270172
 20
79.83775855400484
 30
0.0
 10
21.46236468270172
 20
72.01455855400483
 30
0.0
 10
21.46236468270172
 20
72.01455855400483
 30
0.0
  0
SPLINE
  5
DA
330
A
100
AcDbEntity
  8
Livello 1
370
    15
100
AcDbSpline
210
0.0
220
0.0
230
1.0
 70
    24
 71
     3
 72
     8
 73
     4
 74
     0
 42
0.0000000001
 43
0.0000000001
 40
0.0
 40
0.0
 40
0.0
 40
0.0
 40
1.0
 40
1.0
 40
1.0
 40
1.0
 10
-4.750435317298296
 20
122.0017585540048
 30
0.0
 10
-4.750435317298296
 20
122.0017585540048
 30
0.0
 10
-10.13523531729828
 20
125.1513585540048
 30
0.0
 10
-10.13523531729828
 20
125.1513585540048
 30
0.0
  0
SPLINE
  5
DB
330
A
100
AcDbEntity
  8
Livello 1
370
    15
100
AcDbSpline
210
0.0
220
0.0
230
1.0
 70
    24
 71
     3
 72
     8
 73
     4
 74
     0
 42
0.0000000001
 43
0.0000000001
 40
0.0
 40
0.0
 40
0.0
 40
0.0
 40
1.0
 40
1.0
 40
1.0
 40
1.0
 10
-3.429635317298277
 20
122.8145585540048
 30
0.0
 10
-3.429635317298277
 20
122.8145585540048
 30
0.0
 10
-10.13523531729828
 20
126.6753585540048
 30
0.0
 10
-10.13523531729828
 20
126.6753585540048
 30
0.0
  0
SPLINE
  5
DC
330
A
100
AcDbEntity
  8
Livello 1
370
    15
100
AcDbSpline
210
0.0
220
0.0
230
1.0
 70
    24
 71
     3
 72
     8
 73
     4
 74
     0
 42
0.0000000001
 43
0.0000000001
 40
0.0
 40
0.0
 40
0.0
 40
0.0
 40
1.0
 40
1.0
 40
1.0
 40
1.0
 10
-4.750435317298296
 20
122.0017585540048
 30
0.0
 10
-4.750435317298296
 20
122.0017585540048
 30
0.0
 10
-10.13523531729828
 20
125.1513585540048
 30
0.0
 10
-10.13523531729828
 20
125.1513585540048
 30
0.0
  0
SPLINE
  5
DD
330
A
100
AcDbEntity
  8
Livello 1
370
    15
100
AcDbSpline
210
0.0
220
0.0
230
1.0
 70
    24
 71
     3
 72
     8
 73
     4
 74
     0
 42
0.0000000001
 43
0.0000000001
 40
0.0
 40
0.0
 40
0.0
 40
0.0
 40
1.0
 40
1.0
 40
1.0
 40
1.0
 10
-10.13523531729828
 20
126.6753585540048
 30
0.0
 10
-10.13523531729828
 20
126.6753585540048
 30
0.0
 10
-3.429635317298277
 20
122.8145585540048
 30
0.0
 10
-3.429635317298277
 20
122.8145585540048
 30
0.0
  0
SPLINE
  5
DE
330
A
100
AcDbEntity
  8
Livello 1
370
    15
100
AcDbSpline
210
0.0
220
0.0
230
1.0
 70
    24
 71
     3
 72
     8
 73
     4
 74
     0
 42
0.0000000001
 43
0.0000000001
 40
0.0
 40
0.0
 40
0.0
 40
0.0
 40
1.0
 40
1.0
 40
1.0
 40
1.0
 10
-10.13523531729828
 20
125.1513585540048
 30
0.0
 10
-10.13523531729828
 20
125.1513585540048
 30
0.0
 10
-10.13523531729828
 20
126.6753585540048
 30
0.0
 10
-10.13523531729828
 20
126.6753585540048
 30
0.0
  0
SPLINE
  5
DF
330
A
100
AcDbEntity
  8
Livello 1
370
    15
100
AcDbSpline
210
0.0
220
0.0
230
1.0
 70
     8
 71
     3
 72
    16
 73
    12
 74
     0
 42
0.0000000001
 43
0.0000000001
 40
0.0
 40
0.0
 40
0.0
 40
0.0
 40
0.3333333333333333
 40
0.3333333333333333
 40
0.3333333333333333
 40
0.3333333333333333
 40
0.6666666666666666
 40
0.6666666666666666
 40
0.6666666666666666
 40
0.6666666666666666
 40
1.0
 40
1.0
 40
1.0
 40
1.0
 10
15.1631646827017
 20
61.14335855400481
 30
0.0
 10
15.1631646827017
 20
61.14335855400481
 30
0.0
 10
16.07756468270173
 20
60.53375855400481
 30
0.0
 10
16.07756468270173
 20
60.53375855400481
 30
0.0
 10
16.07756468270173
 20
60.53375855400481
 30
0.0
 10
16.07756468270173
 20
60.53375855400481
 30
0.0
 10
16.6871646827017
 20
60.22895855400483
 30
0.0
 10
16.7887646827017
 20
59.41615855400483
 30
0.0
 10
16.7887646827017
 20
59.41615855400483
 30
0.0
 10
16.7887646827017
 20
59.41615855400483
 30
0.0
 10
16.7887646827017
 20
57.07935855400485
 30
0.0
 10
16.7887646827017
 20
57.07935855400485
 30
0.0
  0
SPLINE
  5
E0
330
A
100
AcDbEntity
  8
Livello 1
370
    15
100
AcDbSpline
210
0.0
220
0.0
230
1.0
 70
    24
 71
     3
 72
     8
 73
     4
 74
     0
 42
0.0000000001
 43
0.0000000001
 40
0.0
 40
0.0
 40
0.0
 40
0.0
 40
1.0
 40
1.0
 40
1.0
 40
1.0
 10
15.1631646827017
 20
61.44815855400484
 30
0.0
 10
15.1631646827017
 20
61.44815855400484
 30
0.0
 10
15.1631646827017
 20
61.14335855400481
 30
0.0
 10
15.1631646827017
 20
61.14335855400481
 30
0.0
  0
SPLINE
  5
E1
330
A
100
AcDbEntity
  8
Livello 1
370
    15
100
AcDbSpline
210
0.0
220
0.0
230
1.0
 70
    24
 71
     3
 72
     8
 73
     4
 74
     0
 42
0.0000000001
 43
0.0000000001
 40
0.0
 40
0.0
 40
0.0
 40
0.0
 40
1.0
 40
1.0
 40
1.0
 40
1.0
 10
15.1631646827017
 20
76.48495855400483
 30
0.0
 10
15.1631646827017
 20
76.48495855400483
 30
0.0
 10
15.1631646827017
 20
69.98255855400481
 30
0.0
 10
15.1631646827017
 20
69.98255855400481
 30
0.0
  0
SPLINE
  5
E2
330
A
100
AcDbEntity
  8
Livello 1
370
    15
100
AcDbSpline
210
0.0
220
0.0
230
1.0
 70
    24
 71
     3
 72
     8
 73
     4
 74
     0
 42
0.0000000001
 43
0.0000000001
 40
0.0
 40
0.0
 40
0.0
 40
0.0
 40
1.0
 40
1.0
 40
1.0
 40
1.0
 10
15.1631646827017
 20
83.59695855400483
 30
0.0
 10
15.1631646827017
 20
83.59695855400483
 30
0.0
 10
15.1631646827017
 20
81.66655855400483
 30
0.0
 10
15.1631646827017
 20
81.66655855400483
 30
0.0
  0
SPLINE
  5
E3
330
A
100
AcDbEntity
  8
Livello 1
370
    15
100
AcDbSpline
210
0.0
220
0.0
230
1.0
 70
    24
 71
     3
 72
     8
 73
     4
 74
     0
 42
0.0000000001
 43
0.0000000001
 40
0.0
 40
0.0
 40
0.0
 40
0.0
 40
1.0
 40
1.0
 40
1.0
 40
1.0
 10
13.84236468270171
 20
82.78415855400485
 30
0.0
 10
13.84236468270171
 20
82.78415855400485
 30
0.0
 10
13.84236468270171
 20
80.8537585540048
 30
0.0
 10
13.84236468270171
 20
80.8537585540048
 30
0.0
  0
SPLINE
  5
E4
330
A
100
AcDbEntity
  8
Livello 1
370
    15
100
AcDbSpline
210
0.0
220
0.0
230
1.0
 70
    27
 71
     3
 72
     8
 73
     4
 74
     0
 42
0.0000000001
 43
0.0000000001
 40
0.0
 40
0.0
 40
0.0
 40
0.0
 40
1.0
 40
1.0
 40
1.0
 40
1.0
 10
15.77276468270173
 20
64.80095855400484
 30
0.0
 10
15.77276468270173
 20
64.80095855400484
 30
0.0
 10
15.77276468270173
 20
64.80095855400484
 30
0.0
 10
15.77276468270173
 20
64.80095855400484
 30
0.0
  0
SPLINE
  5
E5
330
A
100
AcDbEntity
  8
Livello 1
370
    15
100
AcDbSpline
210
0.0
220
0.0
230
1.0
 70
    24
 71
     3
 72
     8
 73
     4
 74
     0
 42
0.0000000001
 43
0.0000000001
 40
0.0
 40
0.0
 40
0.0
 40
0.0
 40
1.0
 40
1.0
 40
1.0
 40
1.0
 10
16.7887646827017
 20
57.07935855400485
 30
0.0
 10
16.7887646827017
 20
57.07935855400485
 30
0.0
 10
15.36636468270171
 20
56.26655855400485
 30
0.0
 10
15.36636468270171
 20
56.26655855400485
 30
0.0
  0
SPLINE
  5
E6
330
A
100
AcDbEntity
  8
Livello 1
370
    15
100
AcDbSpline
210
0.0
220
0.0
230
1.0
 70
    24
 71
     3
 72
     8
 73
     4
 74
     0
 42
0.0000000001
 43
0.0000000001
 40
0.0
 40
0.0
 40
0.0
 40
0.0
 40
1.0
 40
1.0
 40
1.0
 40
1.0
 10
16.7887646827017
 20
57.07935855400485
 30
0.0
 10
16.7887646827017
 20
57.07935855400485
 30
0.0
 10
15.36636468270171
 20
56.26655855400485
 30
0.0
 10
15.36636468270171
 20
56.26655855400485
 30
0.0
  0
SPLINE
  5
E7
330
A
100
AcDbEntity
  8
Livello 1
370
    15
100
AcDbSpline
210
0.0
220
0.0
230
1.0
 70
    27
 71
     3
 72
     8
 73
     4
 74
     0
 42
0.0000000001
 43
0.0000000001
 40
0.0
 40
0.0
 40
0.0
 40
0.0
 40
1.0
 40
1.0
 40
1.0
 40
1.0
 10
15.36636468270171
 20
93.14735855400483
 30
0.0
 10
15.36636468270171
 20
93.14735855400483
 30
0.0
 10
15.36636468270171
 20
93.14735855400483
 30
0.0
 10
15.36636468270171
 20
93.14735855400483
 30
0.0
  0
SPLINE
  5
E8
330
A
100
AcDbEntity
  8
Livello 1
370
    15
100
AcDbSpline
210
0.0
220
0.0
230
1.0
 70
    27
 71
     3
 72
     8
 73
     4
 74
     0
 42
0.0000000001
 43
0.0000000001
 40
0.0
 40
0.0
 40
0.0
 40
0.0
 40
1.0
 40
1.0
 40
1.0
 40
1.0
 10
15.36636468270171
 20
56.26655855400485
 30
0.0
 10
15.36636468270171
 20
56.26655855400485
 30
0.0
 10
15.36636468270171
 20
56.26655855400485
 30
0.0
 10
15.36636468270171
 20
56.26655855400485
 30
0.0
  0
SPLINE
  5
E9
330
A
100
AcDbEntity
  8
Livello 1
370
    15
100
AcDbSpline
210
0.0
220
0.0
230
1.0
 70
    24
 71
     3
 72
     8
 73
     4
 74
     0
 42
0.0000000001
 43
0.0000000001
 40
0.0
 40
0.0
 40
0.0
 40
0.0
 40
1.0
 40
1.0
 40
1.0
 40
1.0
 10
-36.55123531729826
 20
136.1241585540048
 30
0.0
 10
-36.55123531729826
 20
136.1241585540048
 30
0.0
 10
-37.5672353172983
 20
135.5145585540048
 30
0.0
 10
-37.5672353172983
 20
135.5145585540048
 30
0.0
  0
SPLINE
  5
EA
330
A
100
AcDbEntity
  8
Livello 1
370
    15
100
AcDbSpline
210
0.0
220
0.0
230
1.0
 70
     8
 71
     3
 72
    24
 73
    20
 74
     0
 42
0.0000000001
 43
0.0000000001
 40
0.0
 40
0.0
 40
0.0
 40
0.0
 40
0.2
 40
0.2
 40
0.2
 40
0.2
 40
0.4
 40
0.4
 40
0.4
 40
0.4
 40
0.6000000000000001
 40
0.6000000000000001
 40
0.6000000000000001
 40
0.6000000000000001
 40
0.8
 40
0.8
 40
0.8
 40
0.8
 40
1.0
 40
1.0
 40
1.0
 40
1.0
 10
15.36636468270171
 20
43.87135855400481
 30
0.0
 10
15.36636468270171
 20
43.87135855400481
 30
0.0
 10
16.3823646827017
 20
44.48095855400485
 30
0.0
 10
16.3823646827017
 20
44.48095855400485
 30
0.0
 10
16.3823646827017
 20
44.48095855400485
 30
0.0
 10
16.3823646827017
 20
44.48095855400485
 30
0.0
 10
16.6871646827017
 20
44.58255855400483
 30
0.0
 10
16.99196468270173
 20
44.37935855400485
 30
0.0
 10
16.99196468270173
 20
44.37935855400485
 30
0.0
 10
16.99196468270173
 20
44.37935855400485
 30
0.0
 10
17.0935646827017
 20
44.27775855400483
 30
0.0
 10
17.0935646827017
 20
43.97295855400481
 30
0.0
 10
17.0935646827017
 20
43.97295855400481
 30
0.0
 10
17.0935646827017
 20
43.97295855400481
 30
0.0
 10
17.0935646827017
 20
42.04255855400481
 30
0.0
 10
17.0935646827017
 20
42.04255855400481
 30
0.0
 10
17.0935646827017
 20
42.04255855400481
 30
0.0
 10
17.0935646827017
 20
42.04255855400481
 30
0.0
 10
17.0935646827017
 20
41.33135855400484
 30
0.0
 10
16.6871646827017
 20
41.02655855400485
 30
0.0
  0
SPLINE
  5
EB
330
A
100
AcDbEntity
  8
Livello 1
370
    15
100
AcDbSpline
210
0.0
220
0.0
230
1.0
 70
     8
 71
     3
 72
    12
 73
     8
 74
     0
 42
0.0000000001
 43
0.0000000001
 40
0.0
 40
0.0
 40
0.0
 40
0.0
 40
0.5
 40
0.5
 40
0.5
 40
0.5
 40
1.0
 40
1.0
 40
1.0
 40
1.0
 10
13.84236468270171
 20
81.15855855400486
 30
0.0
 10
13.84236468270171
 20
81.15855855400486
 30
0.0
 10
20.24316468270172
 20
83.59695855400483
 30
0.0
 10
20.24316468270172
 20
83.59695855400483
 30
0.0
 10
20.24316468270172
 20
83.59695855400483
 30
0.0
 10
20.24316468270172
 20
83.59695855400483
 30
0.0
 10
20.64956468270174
 20
83.80015855400486
 30
0.0
 10
20.95436468270168
 20
83.59695855400483
 30
0.0
  0
SPLINE
  5
EC
330
A
100
AcDbEntity
  8
Livello 1
370
    15
100
AcDbSpline
210
0.0
220
0.0
230
1.0
 70
     8
 71
     3
 72
    12
 73
     8
 74
     0
 42
0.0000000001
 43
0.0000000001
 40
0.0
 40
0.0
 40
0.0
 40
0.0
 40
0.5
 40
0.5
 40
0.5
 40
0.5
 40
1.0
 40
1.0
 40
1.0
 40
1.0
 10
22.68156468270168
 20
81.97135855400484
 30
0.0
 10
22.57996468270171
 20
83.29215855400486
 30
0.0
 10
21.56396468270174
 20
82.78415855400485
 30
0.0
 10
21.56396468270174
 20
82.78415855400485
 30
0.0
 10
21.56396468270174
 20
82.78415855400485
 30
0.0
 10
21.56396468270174
 20
82.78415855400485
 30
0.0
 10
15.36636468270171
 20
79.93935855400483
 30
0.0
 10
15.36636468270171
 20
79.93935855400483
 30
0.0
  0
SPLINE
  5
ED
330
A
100
AcDbEntity
  8
Livello 1
370
    15
100
AcDbSpline
210
0.0
220
0.0
230
1.0
 70
    24
 71
     3
 72
     8
 73
     4
 74
     0
 42
0.0000000001
 43
0.0000000001
 40
0.0
 40
0.0
 40
0.0
 40
0.0
 40
1.0
 40
1.0
 40
1.0
 40
1.0
 10
15.36636468270171
 20
90.50575855400486
 30
0.0
 10
15.36636468270171
 20
90.50575855400486
 30
0.0
 10
15.36636468270171
 20
89.59135855400484
 30
0.0
 10
15.36636468270171
 20
89.59135855400484
 30
0.0
  0
SPLINE
  5
EE
330
A
100
AcDbEntity
  8
Livello 1
370
    15
100
AcDbSpline
210
0.0
220
0.0
230
1.0
 70
    24
 71
     3
 72
     8
 73
     4
 74
     0
 42
0.0000000001
 43
0.0000000001
 40
0.0
 40
0.0
 40
0.0
 40
0.0
 40
1.0
 40
1.0
 40
1.0
 40
1.0
 10
15.36636468270171
 20
101.5801585540048
 30
0.0
 10
15.36636468270171
 20
101.5801585540048
 30
0.0
 10
15.36636468270171
 20
90.50575855400486
 30
0.0
 10
15.36636468270171
 20
90.50575855400486
 30
0.0
  0
SPLINE
  5
EF
330
A
100
AcDbEntity
  8
Livello 1
370
    15
100
AcDbSpline
210
0.0
220
0.0
230
1.0
 70
    24
 71
     3
 72
     8
 73
     4
 74
     0
 42
0.0000000001
 43
0.0000000001
 40
0.0
 40
0.0
 40
0.0
 40
0.0
 40
1.0
 40
1.0
 40
1.0
 40
1.0
 10
-6.274435317298298
 20
117.4297585540048
 30
0.0
 10
-6.274435317298298
 20
117.4297585540048
 30
0.0
 10
12.41996468270173
 20
106.6601585540048
 30
0.0
 10
12.41996468270173
 20
106.6601585540048
 30
0.0
  0
SPLINE
  5
F0
330
A
100
AcDbEntity
  8
Livello 1
370
    15
100
AcDbSpline
210
0.0
220
0.0
230
1.0
 70
    24
 71
     3
 72
     8
 73
     4
 74
     0
 42
0.0000000001
 43
0.0000000001
 40
0.0
 40
0.0
 40
0.0
 40
0.0
 40
1.0
 40
1.0
 40
1.0
 40
1.0
 10
-0.686435317298276
 20
119.8681585540048
 30
0.0
 10
-0.686435317298276
 20
119.8681585540048
 30
0.0
 10
-4.750435317298296
 20
116.6169585540048
 30
0.0
 10
-4.750435317298296
 20
116.6169585540048
 30
0.0
  0
SPLINE
  5
F1
330
A
100
AcDbEntity
  8
Livello 1
370
    15
100
AcDbSpline
210
0.0
220
0.0
230
1.0
 70
    24
 71
     3
 72
     8
 73
     4
 74
     0
 42
0.0000000001
 43
0.0000000001
 40
0.0
 40
0.0
 40
0.0
 40
0.0
 40
1.0
 40
1.0
 40
1.0
 40
1.0
 10
-6.274435317298298
 20
117.4297585540048
 30
0.0
 10
-6.274435317298298
 20
117.4297585540048
 30
0.0
 10
-0.686435317298276
 20
121.4937585540048
 30
0.0
 10
-0.686435317298276
 20
121.4937585540048
 30
0.0
  0
SPLINE
  5
F2
330
A
100
AcDbEntity
  8
Livello 1
370
    15
100
AcDbSpline
210
0.0
220
0.0
230
1.0
 70
    24
 71
     3
 72
     8
 73
     4
 74
     0
 42
0.0000000001
 43
0.0000000001
 40
0.0
 40
0.0
 40
0.0
 40
0.0
 40
1.0
 40
1.0
 40
1.0
 40
1.0
 10
-9.220835317298323
 20
119.1569585540048
 30
0.0
 10
-9.220835317298323
 20
119.1569585540048
 30
0.0
 10
-3.429635317298277
 20
122.8145585540048
 30
0.0
 10
-3.429635317298277
 20
122.8145585540048
 30
0.0
  0
SPLINE
  5
F3
330
A
100
AcDbEntity
  8
Livello 1
370
    15
100
AcDbSpline
210
0.0
220
0.0
230
1.0
 70
    24
 71
     3
 72
     8
 73
     4
 74
     0
 42
0.0000000001
 43
0.0000000001
 40
0.0
 40
0.0
 40
0.0
 40
0.0
 40
1.0
 40
1.0
 40
1.0
 40
1.0
 10
-6.274435317298298
 20
117.4297585540048
 30
0.0
 10
-6.274435317298298
 20
117.4297585540048
 30
0.0
 10
-9.220835317298323
 20
119.1569585540048
 30
0.0
 10
-9.220835317298323
 20
119.1569585540048
 30
0.0
  0
SPLINE
  5
F4
330
A
100
AcDbEntity
  8
Livello 1
370
    15
100
AcDbSpline
210
0.0
220
0.0
230
1.0
 70
    24
 71
     3
 72
     8
 73
     4
 74
     0
 42
0.0000000001
 43
0.0000000001
 40
0.0
 40
0.0
 40
0.0
 40
0.0
 40
1.0
 40
1.0
 40
1.0
 40
1.0
 10
15.36636468270171
 20
76.58655855400484
 30
0.0
 10
15.36636468270171
 20
76.58655855400484
 30
0.0
 10
15.36636468270171
 20
79.93935855400483
 30
0.0
 10
15.36636468270171
 20
79.93935855400483
 30
0.0
  0
SPLINE
  5
F5
330
A
100
AcDbEntity
  8
Livello 1
370
    15
100
AcDbSpline
210
0.0
220
0.0
230
1.0
 70
    24
 71
     3
 72
     8
 73
     4
 74
     0
 42
0.0000000001
 43
0.0000000001
 40
0.0
 40
0.0
 40
0.0
 40
0.0
 40
1.0
 40
1.0
 40
1.0
 40
1.0
 10
21.46236468270172
 20
79.83775855400484
 30
0.0
 10
21.46236468270172
 20
79.83775855400484
 30
0.0
 10
15.36636468270171
 20
76.58655855400484
 30
0.0
 10
15.36636468270171
 20
76.58655855400484
 30
0.0
  0
SPLINE
  5
F6
330
A
100
AcDbEntity
  8
Livello 1
370
    15
100
AcDbSpline
210
0.0
220
0.0
230
1.0
 70
    24
 71
     3
 72
     8
 73
     4
 74
     0
 42
0.0000000001
 43
0.0000000001
 40
0.0
 40
0.0
 40
0.0
 40
0.0
 40
1.0
 40
1.0
 40
1.0
 40
1.0
 10
13.53756468270171
 20
69.06815855400484
 30
0.0
 10
13.53756468270171
 20
69.06815855400484
 30
0.0
 10
20.03996468270174
 20
72.82735855400483
 30
0.0
 10
20.03996468270174
 20
72.82735855400483
 30
0.0
  0
SPLINE
  5
F7
330
A
100
AcDbEntity
  8
Livello 1
370
    15
100
AcDbSpline
210
0.0
220
0.0
230
1.0
 70
    24
 71
     3
 72
     8
 73
     4
 74
     0
 42
0.0000000001
 43
0.0000000001
 40
0.0
 40
0.0
 40
0.0
 40
0.0
 40
1.0
 40
1.0
 40
1.0
 40
1.0
 10
15.36636468270171
 20
68.05215855400482
 30
0.0
 10
15.36636468270171
 20
68.05215855400482
 30
0.0
 10
21.46236468270172
 20
72.01455855400483
 30
0.0
 10
21.46236468270172
 20
72.01455855400483
 30
0.0
  0
SPLINE
  5
F8
330
A
100
AcDbEntity
  8
Livello 1
370
    15
100
AcDbSpline
210
0.0
220
0.0
230
1.0
 70
    24
 71
     3
 72
     8
 73
     4
 74
     0
 42
0.0000000001
 43
0.0000000001
 40
0.0
 40
0.0
 40
0.0
 40
0.0
 40
1.0
 40
1.0
 40
1.0
 40
1.0
 10
15.36636468270171
 20
64.59775855400483
 30
0.0
 10
15.36636468270171
 20
64.59775855400483
 30
0.0
 10
15.36636468270171
 20
68.05215855400482
 30
0.0
 10
15.36636468270171
 20
68.05215855400482
 30
0.0
  0
SPLINE
  5
F9
330
A
100
AcDbEntity
  8
Livello 1
370
    15
100
AcDbSpline
210
0.0
220
0.0
230
1.0
 70
    24
 71
     3
 72
     8
 73
     4
 74
     0
 42
0.0000000001
 43
0.0000000001
 40
0.0
 40
0.0
 40
0.0
 40
0.0
 40
1.0
 40
1.0
 40
1.0
 40
1.0
 10
21.56396468270174
 20
69.16975855400483
 30
0.0
 10
21.56396468270174
 20
69.16975855400483
 30
0.0
 10
15.36636468270171
 20
64.59775855400483
 30
0.0
 10
15.36636468270171
 20
64.59775855400483
 30
0.0
  0
SPLINE
  5
FA
330
A
100
AcDbEntity
  8
Livello 1
370
    15
100
AcDbSpline
210
0.0
220
0.0
230
1.0
 70
    24
 71
     3
 72
     8
 73
     4
 74
     0
 42
0.0000000001
 43
0.0000000001
 40
0.0
 40
0.0
 40
0.0
 40
0.0
 40
1.0
 40
1.0
 40
1.0
 40
1.0
 10
13.43596468270171
 20
69.16975855400483
 30
0.0
 10
13.43596468270171
 20
69.16975855400483
 30
0.0
 10
13.53756468270171
 20
69.06815855400484
 30
0.0
 10
13.53756468270171
 20
69.06815855400484
 30
0.0
  0
SPLINE
  5
FB
330
A
100
AcDbEntity
  8
Livello 1
370
    15
100
AcDbSpline
210
0.0
220
0.0
230
1.0
 70
    24
 71
     3
 72
     8
 73
     4
 74
     0
 42
0.0000000001
 43
0.0000000001
 40
0.0
 40
0.0
 40
0.0
 40
0.0
 40
1.0
 40
1.0
 40
1.0
 40
1.0
 10
-16.6376353172983
 20
121.3921585540048
 30
0.0
 10
-16.6376353172983
 20
121.3921585540048
 30
0.0
 10
-16.6376353172983
 20
121.1889585540048
 30
0.0
 10
-16.6376353172983
 20
121.1889585540048
 30
0.0
  0
SPLINE
  5
FC
330
A
100
AcDbEntity
  8
Livello 1
370
    15
100
AcDbSpline
210
0.0
220
0.0
230
1.0
 70
     8
 71
     3
 72
    12
 73
     8
 74
     0
 42
0.0000000001
 43
0.0000000001
 40
0.0
 40
0.0
 40
0.0
 40
0.0
 40
0.5
 40
0.5
 40
0.5
 40
0.5
 40
1.0
 40
1.0
 40
1.0
 40
1.0
 10
-19.58403531729828
 20
125.1513585540048
 30
0.0
 10
-19.58403531729828
 20
125.1513585540048
 30
0.0
 10
-12.47203531729829
 20
128.1993585540048
 30
0.0
 10
-12.47203531729829
 20
128.1993585540048
 30
0.0
 10
-12.47203531729829
 20
128.1993585540048
 30
0.0
 10
-12.47203531729829
 20
128.1993585540048
 30
0.0
 10
-11.35443531729828
 20
128.8089585540048
 30
0.0
 10
-10.13523531729828
 20
128.0977585540048
 30
0.0
  0
SPLINE
  5
FD
330
A
100
AcDbEntity
  8
Livello 1
370
    15
100
AcDbSpline
210
0.0
220
0.0
230
1.0
 70
    24
 71
     3
 72
     8
 73
     4
 74
     0
 42
0.0000000001
 43
0.0000000001
 40
0.0
 40
0.0
 40
0.0
 40
0.0
 40
1.0
 40
1.0
 40
1.0
 40
1.0
 10
-16.6376353172983
 20
121.1889585540048
 30
0.0
 10
-16.6376353172983
 20
121.1889585540048
 30
0.0
 10
-11.1512353172983
 20
118.0393585540048
 30
0.0
 10
-11.1512353172983
 20
118.0393585540048
 30
0.0
  0
SPLINE
  5
FE
330
A
100
AcDbEntity
  8
Livello 1
370
    15
100
AcDbSpline
210
0.0
220
0.0
230
1.0
 70
    24
 71
     3
 72
     8
 73
     4
 74
     0
 42
0.0000000001
 43
0.0000000001
 40
0.0
 40
0.0
 40
0.0
 40
0.0
 40
1.0
 40
1.0
 40
1.0
 40
1.0
 10
13.43596468270171
 20
75.57055855400483
 30
0.0
 10
13.43596468270171
 20
75.57055855400483
 30
0.0
 10
13.43596468270171
 20
69.16975855400483
 30
0.0
 10
13.43596468270171
 20
69.16975855400483
 30
0.0
  0
SPLINE
  5
FF
330
A
100
AcDbEntity
  8
Livello 1
370
    15
100
AcDbSpline
210
0.0
220
0.0
230
1.0
 70
    24
 71
     3
 72
     8
 73
     4
 74
     0
 42
0.0000000001
 43
0.0000000001
 40
0.0
 40
0.0
 40
0.0
 40
0.0
 40
1.0
 40
1.0
 40
1.0
 40
1.0
 10
15.1631646827017
 20
76.48495855400483
 30
0.0
 10
15.1631646827017
 20
76.48495855400483
 30
0.0
 10
15.1631646827017
 20
69.98255855400481
 30
0.0
 10
15.1631646827017
 20
69.98255855400481
 30
0.0
  0
SPLINE
  5
100
330
A
100
AcDbEntity
  8
Livello 1
370
    15
100
AcDbSpline
210
0.0
220
0.0
230
1.0
 70
    24
 71
     3
 72
     8
 73
     4
 74
     0
 42
0.0000000001
 43
0.0000000001
 40
0.0
 40
0.0
 40
0.0
 40
0.0
 40
1.0
 40
1.0
 40
1.0
 40
1.0
 10
15.36636468270171
 20
64.59775855400483
 30
0.0
 10
15.36636468270171
 20
64.59775855400483
 30
0.0
 10
15.36636468270171
 20
61.54975855400483
 30
0.0
 10
15.36636468270171
 20
61.54975855400483
 30
0.0
  0
SPLINE
  5
101
330
A
100
AcDbEntity
  8
Livello 1
370
    15
100
AcDbSpline
210
0.0
220
0.0
230
1.0
 70
    24
 71
     3
 72
     8
 73
     4
 74
     0
 42
0.0000000001
 43
0.0000000001
 40
0.0
 40
0.0
 40
0.0
 40
0.0
 40
1.0
 40
1.0
 40
1.0
 40
1.0
 10
15.1631646827017
 20
61.14335855400481
 30
0.0
 10
15.1631646827017
 20
61.14335855400481
 30
0.0
 10
14.45196468270171
 20
60.73695855400482
 30
0.0
 10
14.45196468270171
 20
60.73695855400482
 30
0.0
  0
SPLINE
  5
102
330
A
100
AcDbEntity
  8
Livello 1
370
    15
100
AcDbSpline
210
0.0
220
0.0
230
1.0
 70
    24
 71
     3
 72
     8
 73
     4
 74
     0
 42
0.0000000001
 43
0.0000000001
 40
0.0
 40
0.0
 40
0.0
 40
0.0
 40
1.0
 40
1.0
 40
1.0
 40
1.0
 10
15.1631646827017
 20
61.44815855400484
 30
0.0
 10
15.1631646827017
 20
61.44815855400484
 30
0.0
 10
15.1631646827017
 20
61.14335855400481
 30
0.0
 10
15.1631646827017
 20
61.14335855400481
 30
0.0
  0
SPLINE
  5
103
330
A
100
AcDbEntity
  8
Livello 1
370
    15
100
AcDbSpline
210
0.0
220
0.0
230
1.0
 70
    24
 71
     3
 72
     8
 73
     4
 74
     0
 42
0.0000000001
 43
0.0000000001
 40
0.0
 40
0.0
 40
0.0
 40
0.0
 40
1.0
 40
1.0
 40
1.0
 40
1.0
 10
14.45196468270171
 20
60.73695855400482
 30
0.0
 10
14.45196468270171
 20
60.73695855400482
 30
0.0
 10
15.1631646827017
 20
61.14335855400481
 30
0.0
 10
15.1631646827017
 20
61.14335855400481
 30
0.0
  0
SPLINE
  5
104
330
A
100
AcDbEntity
  8
Livello 1
370
    15
100
AcDbSpline
210
0.0
220
0.0
230
1.0
 70
    24
 71
     3
 72
     8
 73
     4
 74
     0
 42
0.0000000001
 43
0.0000000001
 40
0.0
 40
0.0
 40
0.0
 40
0.0
 40
1.0
 40
1.0
 40
1.0
 40
1.0
 10
14.45196468270171
 20
58.40015855400483
 30
0.0
 10
14.45196468270171
 20
58.40015855400483
 30
0.0
 10
15.36636468270171
 20
57.89215855400483
 30
0.0
 10
15.36636468270171
 20
57.89215855400483
 30
0.0
  0
SPLINE
  5
105
330
A
100
AcDbEntity
  8
Livello 1
370
    15
100
AcDbSpline
210
0.0
220
0.0
230
1.0
 70
    24
 71
     3
 72
     8
 73
     4
 74
     0
 42
0.0000000001
 43
0.0000000001
 40
0.0
 40
0.0
 40
0.0
 40
0.0
 40
1.0
 40
1.0
 40
1.0
 40
1.0
 10
-10.13523531729828
 20
125.1513585540048
 30
0.0
 10
-10.13523531729828
 20
125.1513585540048
 30
0.0
 10
-16.6376353172983
 20
121.3921585540048
 30
0.0
 10
-16.6376353172983
 20
121.3921585540048
 30
0.0
  0
SPLINE
  5
106
330
A
100
AcDbEntity
  8
Livello 1
370
    15
100
AcDbSpline
210
0.0
220
0.0
230
1.0
 70
    24
 71
     3
 72
     8
 73
     4
 74
     0
 42
0.0000000001
 43
0.0000000001
 40
0.0
 40
0.0
 40
0.0
 40
0.0
 40
1.0
 40
1.0
 40
1.0
 40
1.0
 10
15.36636468270171
 20
43.87135855400481
 30
0.0
 10
15.36636468270171
 20
43.87135855400481
 30
0.0
 10
15.36636468270171
 20
42.95695855400484
 30
0.0
 10
15.36636468270171
 20
42.95695855400484
 30
0.0
  0
SPLINE
  5
107
330
A
100
AcDbEntity
  8
Livello 1
370
    15
100
AcDbSpline
210
0.0
220
0.0
230
1.0
 70
     8
 71
     3
 72
    12
 73
     8
 74
     0
 42
0.0000000001
 43
0.0000000001
 40
0.0
 40
0.0
 40
0.0
 40
0.0
 40
0.5
 40
0.5
 40
0.5
 40
0.5
 40
1.0
 40
1.0
 40
1.0
 40
1.0
 10
14.45196468270171
 20
57.07935855400485
 30
0.0
 10
14.45196468270171
 20
57.48575855400482
 30
0.0
 10
15.36636468270171
 20
57.89215855400483
 30
0.0
 10
15.36636468270171
 20
57.89215855400483
 30
0.0
 10
15.36636468270171
 20
57.89215855400483
 30
0.0
 10
15.36636468270171
 20
57.89215855400483
 30
0.0
 10
15.36636468270171
 20
43.87135855400481
 30
0.0
 10
15.36636468270171
 20
43.87135855400481
 30
0.0
  0
SPLINE
  5
108
330
A
100
AcDbEntity
  8
Livello 1
370
    15
100
AcDbSpline
210
0.0
220
0.0
230
1.0
 70
    24
 71
     3
 72
     8
 73
     4
 74
     0
 42
0.0000000001
 43
0.0000000001
 40
0.0
 40
0.0
 40
0.0
 40
0.0
 40
1.0
 40
1.0
 40
1.0
 40
1.0
 10
-37.5672353172983
 20
135.5145585540048
 30
0.0
 10
-37.5672353172983
 20
135.5145585540048
 30
0.0
 10
-19.58403531729828
 20
125.1513585540048
 30
0.0
 10
-19.58403531729828
 20
125.1513585540048
 30
0.0
  0
SPLINE
  5
109
330
A
100
AcDbEntity
  8
Livello 1
370
    15
100
AcDbSpline
210
0.0
220
0.0
230
1.0
 70
    24
 71
     3
 72
     8
 73
     4
 74
     0
 42
0.0000000001
 43
0.0000000001
 40
0.0
 40
0.0
 40
0.0
 40
0.0
 40
1.0
 40
1.0
 40
1.0
 40
1.0
 10
-38.38003531729832
 20
136.0225585540048
 30
0.0
 10
-38.38003531729832
 20
136.0225585540048
 30
0.0
 10
-37.5672353172983
 20
135.5145585540048
 30
0.0
 10
-37.5672353172983
 20
135.5145585540048
 30
0.0
  0
SPLINE
  5
10A
330
A
100
AcDbEntity
  8
Livello 1
370
    15
100
AcDbSpline
210
0.0
220
0.0
230
1.0
 70
    24
 71
     3
 72
     8
 73
     4
 74
     0
 42
0.0000000001
 43
0.0000000001
 40
0.0
 40
0.0
 40
0.0
 40
0.0
 40
1.0
 40
1.0
 40
1.0
 40
1.0
 10
-16.6376353172983
 20
123.4241585540048
 30
0.0
 10
-16.6376353172983
 20
123.4241585540048
 30
0.0
 10
-19.58403531729828
 20
125.1513585540048
 30
0.0
 10
-19.58403531729828
 20
125.1513585540048
 30
0.0
  0
SPLINE
  5
10B
330
A
100
AcDbEntity
  8
Livello 1
370
    15
100
AcDbSpline
210
0.0
220
0.0
230
1.0
 70
    24
 71
     3
 72
     8
 73
     4
 74
     0
 42
0.0000000001
 43
0.0000000001
 40
0.0
 40
0.0
 40
0.0
 40
0.0
 40
1.0
 40
1.0
 40
1.0
 40
1.0
 10
-10.13523531729828
 20
126.6753585540048
 30
0.0
 10
-10.13523531729828
 20
126.6753585540048
 30
0.0
 10
-16.6376353172983
 20
123.4241585540048
 30
0.0
 10
-16.6376353172983
 20
123.4241585540048
 30
0.0
  0
SPLINE
  5
10C
330
A
100
AcDbEntity
  8
Livello 1
370
    15
100
AcDbSpline
210
0.0
220
0.0
230
1.0
 70
    24
 71
     3
 72
     8
 73
     4
 74
     0
 42
0.0000000001
 43
0.0000000001
 40
0.0
 40
0.0
 40
0.0
 40
0.0
 40
1.0
 40
1.0
 40
1.0
 40
1.0
 10
13.84236468270171
 20
80.8537585540048
 30
0.0
 10
13.84236468270171
 20
80.8537585540048
 30
0.0
 10
13.53756468270171
 20
80.65055855400482
 30
0.0
 10
13.53756468270171
 20
80.65055855400482
 30
0.0
  0
SPLINE
  5
10D
330
A
100
AcDbEntity
  8
Livello 1
370
    15
100
AcDbSpline
210
0.0
220
0.0
230
1.0
 70
    24
 71
     3
 72
     8
 73
     4
 74
     0
 42
0.0000000001
 43
0.0000000001
 40
0.0
 40
0.0
 40
0.0
 40
0.0
 40
1.0
 40
1.0
 40
1.0
 40
1.0
 10
15.06156468270171
 20
79.83775855400484
 30
0.0
 10
15.06156468270171
 20
79.83775855400484
 30
0.0
 10
13.53756468270171
 20
80.65055855400482
 30
0.0
 10
13.53756468270171
 20
80.65055855400482
 30
0.0
  0
SPLINE
  5
10E
330
A
100
AcDbEntity
  8
Livello 1
370
    15
100
AcDbSpline
210
0.0
220
0.0
230
1.0
 70
    24
 71
     3
 72
     8
 73
     4
 74
     0
 42
0.0000000001
 43
0.0000000001
 40
0.0
 40
0.0
 40
0.0
 40
0.0
 40
1.0
 40
1.0
 40
1.0
 40
1.0
 10
15.36636468270171
 20
79.93935855400483
 30
0.0
 10
15.36636468270171
 20
79.93935855400483
 30
0.0
 10
15.06156468270171
 20
79.83775855400484
 30
0.0
 10
15.06156468270171
 20
79.83775855400484
 30
0.0
  0
SPLINE
  5
10F
330
A
100
AcDbEntity
  8
Livello 1
370
    15
100
AcDbSpline
210
0.0
220
0.0
230
1.0
 70
    24
 71
     3
 72
     8
 73
     4
 74
     0
 42
0.0000000001
 43
0.0000000001
 40
0.0
 40
0.0
 40
0.0
 40
0.0
 40
1.0
 40
1.0
 40
1.0
 40
1.0
 10
13.53756468270171
 20
80.65055855400482
 30
0.0
 10
13.53756468270171
 20
80.65055855400482
 30
0.0
 10
13.84236468270171
 20
80.8537585540048
 30
0.0
 10
13.84236468270171
 20
80.8537585540048
 30
0.0
  0
SPLINE
  5
110
330
A
100
AcDbEntity
  8
Livello 1
370
    15
100
AcDbSpline
210
0.0
220
0.0
230
1.0
 70
    24
 71
     3
 72
     8
 73
     4
 74
     0
 42
0.0000000001
 43
0.0000000001
 40
0.0
 40
0.0
 40
0.0
 40
0.0
 40
1.0
 40
1.0
 40
1.0
 40
1.0
 10
15.36636468270171
 20
43.87135855400481
 30
0.0
 10
15.36636468270171
 20
43.87135855400481
 30
0.0
 10
15.36636468270171
 20
42.95695855400484
 30
0.0
 10
15.36636468270171
 20
42.95695855400484
 30
0.0
  0
SPLINE
  5
111
330
A
100
AcDbEntity
  8
Livello 1
370
    15
100
AcDbSpline
210
0.0
220
0.0
230
1.0
 70
    24
 71
     3
 72
     8
 73
     4
 74
     0
 42
0.0000000001
 43
0.0000000001
 40
0.0
 40
0.0
 40
0.0
 40
0.0
 40
1.0
 40
1.0
 40
1.0
 40
1.0
 10
15.36636468270171
 20
61.54975855400483
 30
0.0
 10
15.36636468270171
 20
61.54975855400483
 30
0.0
 10
14.95996468270171
 20
61.34655855400485
 30
0.0
 10
14.95996468270171
 20
61.34655855400485
 30
0.0
  0
SPLINE
  5
112
330
A
100
AcDbEntity
  8
Livello 1
370
    15
100
AcDbSpline
210
0.0
220
0.0
230
1.0
 70
     8
 71
     3
 72
    12
 73
     8
 74
     0
 42
0.0000000001
 43
0.0000000001
 40
0.0
 40
0.0
 40
0.0
 40
0.0
 40
0.5
 40
0.5
 40
0.5
 40
0.5
 40
1.0
 40
1.0
 40
1.0
 40
1.0
 10
14.45196468270171
 20
60.73695855400482
 30
0.0
 10
14.45196468270171
 20
61.04175855400485
 30
0.0
 10
14.95996468270171
 20
61.34655855400485
 30
0.0
 10
14.95996468270171
 20
61.34655855400485
 30
0.0
 10
14.95996468270171
 20
61.34655855400485
 30
0.0
 10
14.95996468270171
 20
61.34655855400485
 30
0.0
 10
14.95996468270171
 20
63.58175855400483
 30
0.0
 10
14.95996468270171
 20
63.58175855400483
 30
0.0
  0
SPLINE
  5
113
330
A
100
AcDbEntity
  8
Livello 1
370
    15
100
AcDbSpline
210
0.0
220
0.0
230
1.0
 70
    24
 71
     3
 72
     8
 73
     4
 74
     0
 42
0.0000000001
 43
0.0000000001
 40
0.0
 40
0.0
 40
0.0
 40
0.0
 40
1.0
 40
1.0
 40
1.0
 40
1.0
 10
15.36636468270171
 20
64.59775855400483
 30
0.0
 10
15.36636468270171
 20
64.59775855400483
 30
0.0
 10
15.36636468270171
 20
61.54975855400483
 30
0.0
 10
15.36636468270171
 20
61.54975855400483
 30
0.0
  0
SPLINE
  5
114
330
A
100
AcDbEntity
  8
Livello 1
370
    15
100
AcDbSpline
210
0.0
220
0.0
230
1.0
 70
    24
 71
     3
 72
     8
 73
     4
 74
     0
 42
0.0000000001
 43
0.0000000001
 40
0.0
 40
0.0
 40
0.0
 40
0.0
 40
1.0
 40
1.0
 40
1.0
 40
1.0
 10
15.36636468270171
 20
68.05215855400482
 30
0.0
 10
15.36636468270171
 20
68.05215855400482
 30
0.0
 10
15.36636468270171
 20
64.59775855400483
 30
0.0
 10
15.36636468270171
 20
64.59775855400483
 30
0.0
  0
SPLINE
  5
115
330
A
100
AcDbEntity
  8
Livello 1
370
    15
100
AcDbSpline
210
0.0
220
0.0
230
1.0
 70
     8
 71
     3
 72
    20
 73
    16
 74
     0
 42
0.0000000001
 43
0.0000000001
 40
0.0
 40
0.0
 40
0.0
 40
0.0
 40
0.25
 40
0.25
 40
0.25
 40
0.25
 40
0.5
 40
0.5
 40
0.5
 40
0.5
 40
0.75
 40
0.75
 40
0.75
 40
0.75
 40
1.0
 40
1.0
 40
1.0
 40
1.0
 10
14.95996468270171
 20
55.45375855400482
 30
0.0
 10
14.95996468270171
 20
55.45375855400482
 30
0.0
 10
14.75676468270171
 20
55.35215855400482
 30
0.0
 10
14.75676468270171
 20
55.35215855400482
 30
0.0
 10
14.75676468270171
 20
55.35215855400482
 30
0.0
 10
14.75676468270171
 20
55.35215855400482
 30
0.0
 10
14.55356468270173
 20
55.14895855400485
 30
0.0
 10
14.55356468270173
 20
55.14895855400485
 30
0.0
 10
14.55356468270173
 20
55.14895855400485
 30
0.0
 10
14.55356468270173
 20
55.14895855400485
 30
0.0
 10
14.45196468270171
 20
55.04735855400481
 30
0.0
 10
14.45196468270171
 20
55.04735855400481
 30
0.0
 10
14.45196468270171
 20
55.04735855400481
 30
0.0
 10
14.45196468270171
 20
55.04735855400481
 30
0.0
 10
14.45196468270171
 20
54.94575855400483
 30
0.0
 10
14.45196468270171
 20
54.94575855400483
 30
0.0
  0
SPLINE
  5
116
330
A
100
AcDbEntity
  8
Livello 1
370
    15
100
AcDbSpline
210
0.0
220
0.0
230
1.0
 70
    24
 71
     3
 72
     8
 73
     4
 74
     0
 42
0.0000000001
 43
0.0000000001
 40
0.0
 40
0.0
 40
0.0
 40
0.0
 40
1.0
 40
1.0
 40
1.0
 40
1.0
 10
14.45196468270171
 20
60.73695855400482
 30
0.0
 10
14.45196468270171
 20
60.73695855400482
 30
0.0
 10
14.45196468270171
 20
62.97215855400483
 30
0.0
 10
14.45196468270171
 20
62.97215855400483
 30
0.0
  0
SPLINE
  5
117
330
A
100
AcDbEntity
  8
Livello 1
370
    15
100
AcDbSpline
210
0.0
220
0.0
230
1.0
 70
    24
 71
     3
 72
     8
 73
     4
 74
     0
 42
0.0000000001
 43
0.0000000001
 40
0.0
 40
0.0
 40
0.0
 40
0.0
 40
1.0
 40
1.0
 40
1.0
 40
1.0
 10
14.45196468270171
 20
54.84415855400483
 30
0.0
 10
14.45196468270171
 20
54.84415855400483
 30
0.0
 10
14.45196468270171
 20
60.73695855400482
 30
0.0
 10
14.45196468270171
 20
60.73695855400482
 30
0.0
  0
SPLINE
  5
118
330
A
100
AcDbEntity
  8
Livello 1
370
    15
100
AcDbSpline
210
0.0
220
0.0
230
1.0
 70
    24
 71
     3
 72
     8
 73
     4
 74
     0
 42
0.0000000001
 43
0.0000000001
 40
0.0
 40
0.0
 40
0.0
 40
0.0
 40
1.0
 40
1.0
 40
1.0
 40
1.0
 10
14.45196468270171
 20
54.94575855400483
 30
0.0
 10
14.45196468270171
 20
54.94575855400483
 30
0.0
 10
14.45196468270171
 20
54.84415855400483
 30
0.0
 10
14.45196468270171
 20
54.84415855400483
 30
0.0
  0
SPLINE
  5
119
330
A
100
AcDbEntity
  8
Livello 1
370
    15
100
AcDbSpline
210
0.0
220
0.0
230
1.0
 70
    27
 71
     3
 72
     8
 73
     4
 74
     0
 42
0.0000000001
 43
0.0000000001
 40
0.0
 40
0.0
 40
0.0
 40
0.0
 40
1.0
 40
1.0
 40
1.0
 40
1.0
 10
12.92796468270171
 20
79.93935855400483
 30
0.0
 10
12.92796468270171
 20
79.93935855400483
 30
0.0
 10
12.92796468270171
 20
79.93935855400483
 30
0.0
 10
12.92796468270171
 20
79.93935855400483
 30
0.0
  0
SPLINE
  5
11A
330
A
100
AcDbEntity
  8
Livello 1
370
    15
100
AcDbSpline
210
0.0
220
0.0
230
1.0
 70
    24
 71
     3
 72
     8
 73
     4
 74
     0
 42
0.0000000001
 43
0.0000000001
 40
0.0
 40
0.0
 40
0.0
 40
0.0
 40
1.0
 40
1.0
 40
1.0
 40
1.0
 10
21.46236468270172
 20
79.83775855400484
 30
0.0
 10
21.46236468270172
 20
79.83775855400484
 30
0.0
 10
15.36636468270171
 20
76.58655855400484
 30
0.0
 10
15.36636468270171
 20
76.58655855400484
 30
0.0
  0
SPLINE
  5
11B
330
A
100
AcDbEntity
  8
Livello 1
370
    15
100
AcDbSpline
210
0.0
220
0.0
230
1.0
 70
    24
 71
     3
 72
     8
 73
     4
 74
     0
 42
0.0000000001
 43
0.0000000001
 40
0.0
 40
0.0
 40
0.0
 40
0.0
 40
1.0
 40
1.0
 40
1.0
 40
1.0
 10
13.43596468270171
 20
69.16975855400483
 30
0.0
 10
13.43596468270171
 20
69.16975855400483
 30
0.0
 10
13.53756468270171
 20
69.06815855400484
 30
0.0
 10
13.53756468270171
 20
69.06815855400484
 30
0.0
  0
SPLINE
  5
11C
330
A
100
AcDbEntity
  8
Livello 1
370
    15
100
AcDbSpline
210
0.0
220
0.0
230
1.0
 70
    24
 71
     3
 72
     8
 73
     4
 74
     0
 42
0.0000000001
 43
0.0000000001
 40
0.0
 40
0.0
 40
0.0
 40
0.0
 40
1.0
 40
1.0
 40
1.0
 40
1.0
 10
12.1151646827017
 20
68.35695855400482
 30
0.0
 10
12.1151646827017
 20
68.35695855400482
 30
0.0
 10
13.43596468270171
 20
69.16975855400483
 30
0.0
 10
13.43596468270171
 20
69.16975855400483
 30
0.0
  0
SPLINE
  5
11D
330
A
100
AcDbEntity
  8
Livello 1
370
    15
100
AcDbSpline
210
0.0
220
0.0
230
1.0
 70
    24
 71
     3
 72
     8
 73
     4
 74
     0
 42
0.0000000001
 43
0.0000000001
 40
0.0
 40
0.0
 40
0.0
 40
0.0
 40
1.0
 40
1.0
 40
1.0
 40
1.0
 10
20.03996468270174
 20
72.82735855400483
 30
0.0
 10
20.03996468270174
 20
72.82735855400483
 30
0.0
 10
21.46236468270172
 20
72.01455855400483
 30
0.0
 10
21.46236468270172
 20
72.01455855400483
 30
0.0
  0
SPLINE
  5
11E
330
A
100
AcDbEntity
  8
Livello 1
370
    15
100
AcDbSpline
210
0.0
220
0.0
230
1.0
 70
    24
 71
     3
 72
     8
 73
     4
 74
     0
 42
0.0000000001
 43
0.0000000001
 40
0.0
 40
0.0
 40
0.0
 40
0.0
 40
1.0
 40
1.0
 40
1.0
 40
1.0
 10
13.53756468270171
 20
69.06815855400484
 30
0.0
 10
13.53756468270171
 20
69.06815855400484
 30
0.0
 10
20.03996468270174
 20
72.82735855400483
 30
0.0
 10
20.03996468270174
 20
72.82735855400483
 30
0.0
  0
SPLINE
  5
11F
330
A
100
AcDbEntity
  8
Livello 1
370
    15
100
AcDbSpline
210
0.0
220
0.0
230
1.0
 70
    24
 71
     3
 72
     8
 73
     4
 74
     0
 42
0.0000000001
 43
0.0000000001
 40
0.0
 40
0.0
 40
0.0
 40
0.0
 40
1.0
 40
1.0
 40
1.0
 40
1.0
 10
21.46236468270172
 20
72.01455855400483
 30
0.0
 10
21.46236468270172
 20
72.01455855400483
 30
0.0
 10
15.36636468270171
 20
68.05215855400482
 30
0.0
 10
15.36636468270171
 20
68.05215855400482
 30
0.0
  0
SPLINE
  5
120
330
A
100
AcDbEntity
  8
Livello 1
370
    15
100
AcDbSpline
210
0.0
220
0.0
230
1.0
 70
    24
 71
     3
 72
     8
 73
     4
 74
     0
 42
0.0000000001
 43
0.0000000001
 40
0.0
 40
0.0
 40
0.0
 40
0.0
 40
1.0
 40
1.0
 40
1.0
 40
1.0
 10
13.53756468270171
 20
80.65055855400482
 30
0.0
 10
13.53756468270171
 20
80.65055855400482
 30
0.0
 10
12.62316468270171
 20
80.14255855400483
 30
0.0
 10
12.62316468270171
 20
80.14255855400483
 30
0.0
  0
SPLINE
  5
121
330
A
100
AcDbEntity
  8
Livello 1
370
    15
100
AcDbSpline
210
0.0
220
0.0
230
1.0
 70
    24
 71
     3
 72
     8
 73
     4
 74
     0
 42
0.0000000001
 43
0.0000000001
 40
0.0
 40
0.0
 40
0.0
 40
0.0
 40
1.0
 40
1.0
 40
1.0
 40
1.0
 10
13.43596468270171
 20
75.57055855400483
 30
0.0
 10
13.43596468270171
 20
75.57055855400483
 30
0.0
 10
13.43596468270171
 20
69.16975855400483
 30
0.0
 10
13.43596468270171
 20
69.16975855400483
 30
0.0
  0
SPLINE
  5
122
330
A
100
AcDbEntity
  8
Livello 1
370
    15
100
AcDbSpline
210
0.0
220
0.0
230
1.0
 70
    24
 71
     3
 72
     8
 73
     4
 74
     0
 42
0.0000000001
 43
0.0000000001
 40
0.0
 40
0.0
 40
0.0
 40
0.0
 40
1.0
 40
1.0
 40
1.0
 40
1.0
 10
-16.6376353172983
 20
121.1889585540048
 30
0.0
 10
-16.6376353172983
 20
121.1889585540048
 30
0.0
 10
-11.1512353172983
 20
118.0393585540048
 30
0.0
 10
-11.1512353172983
 20
118.0393585540048
 30
0.0
  0
SPLINE
  5
123
330
A
100
AcDbEntity
  8
Livello 1
370
    15
100
AcDbSpline
210
0.0
220
0.0
230
1.0
 70
    24
 71
     3
 72
     8
 73
     4
 74
     0
 42
0.0000000001
 43
0.0000000001
 40
0.0
 40
0.0
 40
0.0
 40
0.0
 40
1.0
 40
1.0
 40
1.0
 40
1.0
 10
-9.220835317298323
 20
119.1569585540048
 30
0.0
 10
-9.220835317298323
 20
119.1569585540048
 30
0.0
 10
-3.429635317298277
 20
122.8145585540048
 30
0.0
 10
-3.429635317298277
 20
122.8145585540048
 30
0.0
  0
SPLINE
  5
124
330
A
100
AcDbEntity
  8
Livello 1
370
    15
100
AcDbSpline
210
0.0
220
0.0
230
1.0
 70
    24
 71
     3
 72
     8
 73
     4
 74
     0
 42
0.0000000001
 43
0.0000000001
 40
0.0
 40
0.0
 40
0.0
 40
0.0
 40
1.0
 40
1.0
 40
1.0
 40
1.0
 10
-10.13523531729828
 20
125.1513585540048
 30
0.0
 10
-10.13523531729828
 20
125.1513585540048
 30
0.0
 10
-16.6376353172983
 20
121.3921585540048
 30
0.0
 10
-16.6376353172983
 20
121.3921585540048
 30
0.0
  0
SPLINE
  5
125
330
A
100
AcDbEntity
  8
Livello 1
370
    15
100
AcDbSpline
210
0.0
220
0.0
230
1.0
 70
    24
 71
     3
 72
     8
 73
     4
 74
     0
 42
0.0000000001
 43
0.0000000001
 40
0.0
 40
0.0
 40
0.0
 40
0.0
 40
1.0
 40
1.0
 40
1.0
 40
1.0
 10
-10.13523531729828
 20
126.6753585540048
 30
0.0
 10
-10.13523531729828
 20
126.6753585540048
 30
0.0
 10
-10.13523531729828
 20
125.1513585540048
 30
0.0
 10
-10.13523531729828
 20
125.1513585540048
 30
0.0
  0
SPLINE
  5
126
330
A
100
AcDbEntity
  8
Livello 1
370
    15
100
AcDbSpline
210
0.0
220
0.0
230
1.0
 70
    24
 71
     3
 72
     8
 73
     4
 74
     0
 42
0.0000000001
 43
0.0000000001
 40
0.0
 40
0.0
 40
0.0
 40
0.0
 40
1.0
 40
1.0
 40
1.0
 40
1.0
 10
-16.6376353172983
 20
123.4241585540048
 30
0.0
 10
-16.6376353172983
 20
123.4241585540048
 30
0.0
 10
-10.13523531729828
 20
126.6753585540048
 30
0.0
 10
-10.13523531729828
 20
126.6753585540048
 30
0.0
  0
SPLINE
  5
127
330
A
100
AcDbEntity
  8
Livello 1
370
    15
100
AcDbSpline
210
0.0
220
0.0
230
1.0
 70
     8
 71
     3
 72
    12
 73
     8
 74
     0
 42
0.0000000001
 43
0.0000000001
 40
0.0
 40
0.0
 40
0.0
 40
0.0
 40
0.5
 40
0.5
 40
0.5
 40
0.5
 40
1.0
 40
1.0
 40
1.0
 40
1.0
 10
-16.6376353172983
 20
121.3921585540048
 30
0.0
 10
-16.6376353172983
 20
121.3921585540048
 30
0.0
 10
-16.6376353172983
 20
121.1889585540048
 30
0.0
 10
-16.6376353172983
 20
121.1889585540048
 30
0.0
 10
-16.6376353172983
 20
121.1889585540048
 30
0.0
 10
-16.6376353172983
 20
121.1889585540048
 30
0.0
 10
-17.34883531729829
 20
120.7825585540048
 30
0.0
 10
-17.34883531729829
 20
120.7825585540048
 30
0.0
  0
SPLINE
  5
128
330
A
100
AcDbEntity
  8
Livello 1
370
    15
100
AcDbSpline
210
0.0
220
0.0
230
1.0
 70
    27
 71
     3
 72
     8
 73
     4
 74
     0
 42
0.0000000001
 43
0.0000000001
 40
0.0
 40
0.0
 40
0.0
 40
0.0
 40
1.0
 40
1.0
 40
1.0
 40
1.0
 10
12.92796468270171
 20
79.93935855400483
 30
0.0
 10
12.92796468270171
 20
79.93935855400483
 30
0.0
 10
12.92796468270171
 20
79.93935855400483
 30
0.0
 10
12.92796468270171
 20
79.93935855400483
 30
0.0
  0
SPLINE
  5
129
330
A
100
AcDbEntity
  8
Livello 1
370
    15
100
AcDbSpline
210
0.0
220
0.0
230
1.0
 70
    27
 71
     3
 72
     8
 73
     4
 74
     0
 42
0.0000000001
 43
0.0000000001
 40
0.0
 40
0.0
 40
0.0
 40
0.0
 40
1.0
 40
1.0
 40
1.0
 40
1.0
 10
12.92796468270171
 20
79.93935855400483
 30
0.0
 10
12.92796468270171
 20
79.93935855400483
 30
0.0
 10
12.92796468270171
 20
79.93935855400483
 30
0.0
 10
12.92796468270171
 20
79.93935855400483
 30
0.0
  0
SPLINE
  5
12A
330
A
100
AcDbEntity
  8
Livello 1
370
    15
100
AcDbSpline
210
0.0
220
0.0
230
1.0
 70
    27
 71
     3
 72
     8
 73
     4
 74
     0
 42
0.0000000001
 43
0.0000000001
 40
0.0
 40
0.0
 40
0.0
 40
0.0
 40
1.0
 40
1.0
 40
1.0
 40
1.0
 10
12.92796468270171
 20
79.93935855400483
 30
0.0
 10
12.92796468270171
 20
79.93935855400483
 30
0.0
 10
12.92796468270171
 20
79.93935855400483
 30
0.0
 10
12.92796468270171
 20
79.93935855400483
 30
0.0
  0
SPLINE
  5
12B
330
A
100
AcDbEntity
  8
Livello 1
370
    15
100
AcDbSpline
210
0.0
220
0.0
230
1.0
 70
     8
 71
     3
 72
    16
 73
    12
 74
     0
 42
0.0000000001
 43
0.0000000001
 40
0.0
 40
0.0
 40
0.0
 40
0.0
 40
0.3333333333333333
 40
0.3333333333333333
 40
0.3333333333333333
 40
0.3333333333333333
 40
0.6666666666666666
 40
0.6666666666666666
 40
0.6666666666666666
 40
0.6666666666666666
 40
1.0
 40
1.0
 40
1.0
 40
1.0
 10
12.92796468270171
 20
79.93935855400483
 30
0.0
 10
12.92796468270171
 20
79.93935855400483
 30
0.0
 10
12.62316468270171
 20
80.14255855400483
 30
0.0
 10
12.62316468270171
 20
80.14255855400483
 30
0.0
 10
12.62316468270171
 20
80.14255855400483
 30
0.0
 10
12.62316468270171
 20
80.14255855400483
 30
0.0
 10
13.53756468270171
 20
80.65055855400482
 30
0.0
 10
13.53756468270171
 20
80.65055855400482
 30
0.0
 10
13.53756468270171
 20
80.65055855400482
 30
0.0
 10
13.53756468270171
 20
80.65055855400482
 30
0.0
 10
15.06156468270171
 20
79.83775855400484
 30
0.0
 10
15.06156468270171
 20
79.83775855400484
 30
0.0
  0
SPLINE
  5
12C
330
A
100
AcDbEntity
  8
Livello 1
370
    15
100
AcDbSpline
210
0.0
220
0.0
230
1.0
 70
    24
 71
     3
 72
     8
 73
     4
 74
     0
 42
0.0000000001
 43
0.0000000001
 40
0.0
 40
0.0
 40
0.0
 40
0.0
 40
1.0
 40
1.0
 40
1.0
 40
1.0
 10
13.13116468270171
 20
63.07375855400483
 30
0.0
 10
13.13116468270171
 20
63.07375855400483
 30
0.0
 10
13.13116468270171
 20
63.17535855400485
 30
0.0
 10
13.13116468270171
 20
63.17535855400485
 30
0.0
  0
SPLINE
  5
12D
330
A
100
AcDbEntity
  8
Livello 1
370
    15
100
AcDbSpline
210
0.0
220
0.0
230
1.0
 70
     8
 71
     3
 72
    16
 73
    12
 74
     0
 42
0.0000000001
 43
0.0000000001
 40
0.0
 40
0.0
 40
0.0
 40
0.0
 40
0.3333333333333333
 40
0.3333333333333333
 40
0.3333333333333333
 40
0.3333333333333333
 40
0.6666666666666666
 40
0.6666666666666666
 40
0.6666666666666666
 40
0.6666666666666666
 40
1.0
 40
1.0
 40
1.0
 40
1.0
 10
14.45196468270171
 20
62.97215855400483
 30
0.0
 10
14.55356468270173
 20
63.27695855400483
 30
0.0
 10
14.95996468270171
 20
63.58175855400483
 30
0.0
 10
14.95996468270171
 20
63.58175855400483
 30
0.0
 10
14.95996468270171
 20
63.58175855400483
 30
0.0
 10
14.95996468270171
 20
63.58175855400483
 30
0.0
 10
13.84236468270171
 20
62.97215855400483
 30
0.0
 10
13.84236468270171
 20
62.97215855400483
 30
0.0
 10
13.84236468270171
 20
62.97215855400483
 30
0.0
 10
13.84236468270171
 20
62.97215855400483
 30
0.0
 10
13.23276468270171
 20
62.66735855400481
 30
0.0
 10
13.13116468270171
 20
63.07375855400483
 30
0.0
  0
SPLINE
  5
12E
330
A
100
AcDbEntity
  8
Livello 1
370
    15
100
AcDbSpline
210
0.0
220
0.0
230
1.0
 70
    24
 71
     3
 72
     8
 73
     4
 74
     0
 42
0.0000000001
 43
0.0000000001
 40
0.0
 40
0.0
 40
0.0
 40
0.0
 40
1.0
 40
1.0
 40
1.0
 40
1.0
 10
13.84236468270171
 20
62.97215855400483
 30
0.0
 10
13.84236468270171
 20
62.97215855400483
 30
0.0
 10
13.84236468270171
 20
63.68335855400483
 30
0.0
 10
13.84236468270171
 20
63.68335855400483
 30
0.0
  0
SPLINE
  5
12F
330
A
100
AcDbEntity
  8
Livello 1
370
    15
100
AcDbSpline
210
0.0
220
0.0
230
1.0
 70
    24
 71
     3
 72
     8
 73
     4
 74
     0
 42
0.0000000001
 43
0.0000000001
 40
0.0
 40
0.0
 40
0.0
 40
0.0
 40
1.0
 40
1.0
 40
1.0
 40
1.0
 10
14.55356468270173
 20
55.14895855400485
 30
0.0
 10
14.55356468270173
 20
55.14895855400485
 30
0.0
 10
14.45196468270171
 20
55.04735855400481
 30
0.0
 10
14.45196468270171
 20
55.04735855400481
 30
0.0
  0
SPLINE
  5
130
330
A
100
AcDbEntity
  8
Livello 1
370
    15
100
AcDbSpline
210
0.0
220
0.0
230
1.0
 70
    24
 71
     3
 72
     8
 73
     4
 74
     0
 42
0.0000000001
 43
0.0000000001
 40
0.0
 40
0.0
 40
0.0
 40
0.0
 40
1.0
 40
1.0
 40
1.0
 40
1.0
 10
14.75676468270171
 20
55.35215855400482
 30
0.0
 10
14.75676468270171
 20
55.35215855400482
 30
0.0
 10
14.55356468270173
 20
55.14895855400485
 30
0.0
 10
14.55356468270173
 20
55.14895855400485
 30
0.0
  0
SPLINE
  5
131
330
A
100
AcDbEntity
  8
Livello 1
370
    15
100
AcDbSpline
210
0.0
220
0.0
230
1.0
 70
    24
 71
     3
 72
     8
 73
     4
 74
     0
 42
0.0000000001
 43
0.0000000001
 40
0.0
 40
0.0
 40
0.0
 40
0.0
 40
1.0
 40
1.0
 40
1.0
 40
1.0
 10
14.95996468270171
 20
55.45375855400482
 30
0.0
 10
14.95996468270171
 20
55.45375855400482
 30
0.0
 10
14.75676468270171
 20
55.35215855400482
 30
0.0
 10
14.75676468270171
 20
55.35215855400482
 30
0.0
  0
SPLINE
  5
132
330
A
100
AcDbEntity
  8
Livello 1
370
    15
100
AcDbSpline
210
0.0
220
0.0
230
1.0
 70
    24
 71
     3
 72
     8
 73
     4
 74
     0
 42
0.0000000001
 43
0.0000000001
 40
0.0
 40
0.0
 40
0.0
 40
0.0
 40
1.0
 40
1.0
 40
1.0
 40
1.0
 10
14.45196468270171
 20
54.94575855400483
 30
0.0
 10
14.45196468270171
 20
54.94575855400483
 30
0.0
 10
14.45196468270171
 20
54.84415855400483
 30
0.0
 10
14.45196468270171
 20
54.84415855400483
 30
0.0
  0
SPLINE
  5
133
330
A
100
AcDbEntity
  8
Livello 1
370
    15
100
AcDbSpline
210
0.0
220
0.0
230
1.0
 70
    24
 71
     3
 72
     8
 73
     4
 74
     0
 42
0.0000000001
 43
0.0000000001
 40
0.0
 40
0.0
 40
0.0
 40
0.0
 40
1.0
 40
1.0
 40
1.0
 40
1.0
 10
14.45196468270171
 20
55.04735855400481
 30
0.0
 10
14.45196468270171
 20
55.04735855400481
 30
0.0
 10
14.45196468270171
 20
54.94575855400483
 30
0.0
 10
14.45196468270171
 20
54.94575855400483
 30
0.0
  0
SPLINE
  5
134
330
A
100
AcDbEntity
  8
Livello 1
370
    15
100
AcDbSpline
210
0.0
220
0.0
230
1.0
 70
    24
 71
     3
 72
     8
 73
     4
 74
     0
 42
0.0000000001
 43
0.0000000001
 40
0.0
 40
0.0
 40
0.0
 40
0.0
 40
1.0
 40
1.0
 40
1.0
 40
1.0
 10
13.13116468270171
 20
63.07375855400483
 30
0.0
 10
13.13116468270171
 20
63.07375855400483
 30
0.0
 10
13.13116468270171
 20
63.17535855400485
 30
0.0
 10
13.13116468270171
 20
63.17535855400485
 30
0.0
  0
SPLINE
  5
135
330
A
100
AcDbEntity
  8
Livello 1
370
    15
100
AcDbSpline
210
0.0
220
0.0
230
1.0
 70
    24
 71
     3
 72
     8
 73
     4
 74
     0
 42
0.0000000001
 43
0.0000000001
 40
0.0
 40
0.0
 40
0.0
 40
0.0
 40
1.0
 40
1.0
 40
1.0
 40
1.0
 10
14.45196468270171
 20
54.84415855400483
 30
0.0
 10
14.45196468270171
 20
54.84415855400483
 30
0.0
 10
14.14716468270171
 20
54.13295855400482
 30
0.0
 10
14.14716468270171
 20
54.13295855400482
 30
0.0
  0
SPLINE
  5
136
330
A
100
AcDbEntity
  8
Livello 1
370
    15
100
AcDbSpline
210
0.0
220
0.0
230
1.0
 70
     8
 71
     3
 72
    12
 73
     8
 74
     0
 42
0.0000000001
 43
0.0000000001
 40
0.0
 40
0.0
 40
0.0
 40
0.0
 40
0.5
 40
0.5
 40
0.5
 40
0.5
 40
1.0
 40
1.0
 40
1.0
 40
1.0
 10
14.45196468270171
 20
62.97215855400483
 30
0.0
 10
14.45196468270171
 20
62.97215855400483
 30
0.0
 10
14.14716468270171
 20
62.15935855400483
 30
0.0
 10
14.14716468270171
 20
62.15935855400483
 30
0.0
 10
14.14716468270171
 20
62.15935855400483
 30
0.0
 10
14.14716468270171
 20
62.15935855400483
 30
0.0
 10
14.04556468270169
 20
61.75295855400483
 30
0.0
 10
13.53756468270171
 20
61.54975855400483
 30
0.0
  0
SPLINE
  5
137
330
A
100
AcDbEntity
  8
Livello 1
370
    15
100
AcDbSpline
210
0.0
220
0.0
230
1.0
 70
     8
 71
     3
 72
    16
 73
    12
 74
     0
 42
0.0000000001
 43
0.0000000001
 40
0.0
 40
0.0
 40
0.0
 40
0.0
 40
0.3333333333333333
 40
0.3333333333333333
 40
0.3333333333333333
 40
0.3333333333333333
 40
0.6666666666666666
 40
0.6666666666666666
 40
0.6666666666666666
 40
0.6666666666666666
 40
1.0
 40
1.0
 40
1.0
 40
1.0
 10
14.45196468270171
 20
54.84415855400483
 30
0.0
 10
14.45196468270171
 20
54.84415855400483
 30
0.0
 10
14.14716468270171
 20
54.13295855400482
 30
0.0
 10
14.14716468270171
 20
54.13295855400482
 30
0.0
 10
14.14716468270171
 20
54.13295855400482
 30
0.0
 10
14.14716468270171
 20
54.13295855400482
 30
0.0
 10
14.04556468270169
 20
53.92975855400482
 30
0.0
 10
14.04556468270169
 20
53.92975855400482
 30
0.0
 10
14.04556468270169
 20
53.92975855400482
 30
0.0
 10
14.04556468270169
 20
53.92975855400482
 30
0.0
 10
13.94396468270173
 20
53.72655855400484
 30
0.0
 10
13.94396468270173
 20
53.72655855400484
 30
0.0
  0
SPLINE
  5
138
330
A
100
AcDbEntity
  8
Livello 1
370
    15
100
AcDbSpline
210
0.0
220
0.0
230
1.0
 70
     8
 71
     3
 72
    12
 73
     8
 74
     0
 42
0.0000000001
 43
0.0000000001
 40
0.0
 40
0.0
 40
0.0
 40
0.0
 40
0.5
 40
0.5
 40
0.5
 40
0.5
 40
1.0
 40
1.0
 40
1.0
 40
1.0
 10
12.62316468270171
 20
62.05775855400482
 30
0.0
 10
12.82636468270172
 20
62.15935855400483
 30
0.0
 10
12.82636468270172
 20
62.36255855400481
 30
0.0
 10
12.82636468270172
 20
62.36255855400481
 30
0.0
 10
12.82636468270172
 20
62.36255855400481
 30
0.0
 10
12.82636468270172
 20
62.36255855400481
 30
0.0
 10
13.13116468270171
 20
63.17535855400485
 30
0.0
 10
13.13116468270171
 20
63.17535855400485
 30
0.0
  0
SPLINE
  5
139
330
A
100
AcDbEntity
  8
Livello 1
370
    15
100
AcDbSpline
210
0.0
220
0.0
230
1.0
 70
    24
 71
     3
 72
     8
 73
     4
 74
     0
 42
0.0000000001
 43
0.0000000001
 40
0.0
 40
0.0
 40
0.0
 40
0.0
 40
1.0
 40
1.0
 40
1.0
 40
1.0
 10
13.94396468270173
 20
53.72655855400484
 30
0.0
 10
13.94396468270173
 20
53.72655855400484
 30
0.0
 10
13.74076468270169
 20
53.52335855400482
 30
0.0
 10
13.74076468270169
 20
53.52335855400482
 30
0.0
  0
SPLINE
  5
13A
330
A
100
AcDbEntity
  8
Livello 1
370
    15
100
AcDbSpline
210
0.0
220
0.0
230
1.0
 70
    24
 71
     3
 72
     8
 73
     4
 74
     0
 42
0.0000000001
 43
0.0000000001
 40
0.0
 40
0.0
 40
0.0
 40
0.0
 40
1.0
 40
1.0
 40
1.0
 40
1.0
 10
-16.6376353172983
 20
123.4241585540048
 30
0.0
 10
-16.6376353172983
 20
123.4241585540048
 30
0.0
 10
-19.48243531729827
 20
122.0017585540048
 30
0.0
 10
-19.48243531729827
 20
122.0017585540048
 30
0.0
  0
SPLINE
  5
13B
330
A
100
AcDbEntity
  8
Livello 1
370
    15
100
AcDbSpline
210
0.0
220
0.0
230
1.0
 70
    24
 71
     3
 72
     8
 73
     4
 74
     0
 42
0.0000000001
 43
0.0000000001
 40
0.0
 40
0.0
 40
0.0
 40
0.0
 40
1.0
 40
1.0
 40
1.0
 40
1.0
 10
-19.58403531729828
 20
125.1513585540048
 30
0.0
 10
-19.58403531729828
 20
125.1513585540048
 30
0.0
 10
-16.6376353172983
 20
123.4241585540048
 30
0.0
 10
-16.6376353172983
 20
123.4241585540048
 30
0.0
  0
SPLINE
  5
13C
330
A
100
AcDbEntity
  8
Livello 1
370
    15
100
AcDbSpline
210
0.0
220
0.0
230
1.0
 70
    24
 71
     3
 72
     8
 73
     4
 74
     0
 42
0.0000000001
 43
0.0000000001
 40
0.0
 40
0.0
 40
0.0
 40
0.0
 40
1.0
 40
1.0
 40
1.0
 40
1.0
 10
-37.5672353172983
 20
135.5145585540048
 30
0.0
 10
-37.5672353172983
 20
135.5145585540048
 30
0.0
 10
-19.58403531729828
 20
125.1513585540048
 30
0.0
 10
-19.58403531729828
 20
125.1513585540048
 30
0.0
  0
SPLINE
  5
13D
330
A
100
AcDbEntity
  8
Livello 1
370
    15
100
AcDbSpline
210
0.0
220
0.0
230
1.0
 70
    24
 71
     3
 72
     8
 73
     4
 74
     0
 42
0.0000000001
 43
0.0000000001
 40
0.0
 40
0.0
 40
0.0
 40
0.0
 40
1.0
 40
1.0
 40
1.0
 40
1.0
 10
-38.38003531729832
 20
136.0225585540048
 30
0.0
 10
-38.38003531729832
 20
136.0225585540048
 30
0.0
 10
-37.5672353172983
 20
135.5145585540048
 30
0.0
 10
-37.5672353172983
 20
135.5145585540048
 30
0.0
  0
SPLINE
  5
13E
330
A
100
AcDbEntity
  8
Livello 1
370
    15
100
AcDbSpline
210
0.0
220
0.0
230
1.0
 70
    24
 71
     3
 72
     8
 73
     4
 74
     0
 42
0.0000000001
 43
0.0000000001
 40
0.0
 40
0.0
 40
0.0
 40
0.0
 40
1.0
 40
1.0
 40
1.0
 40
1.0
 10
15.36636468270171
 20
79.93935855400483
 30
0.0
 10
15.36636468270171
 20
79.93935855400483
 30
0.0
 10
15.36636468270171
 20
76.58655855400484
 30
0.0
 10
15.36636468270171
 20
76.58655855400484
 30
0.0
  0
SPLINE
  5
13F
330
A
100
AcDbEntity
  8
Livello 1
370
    15
100
AcDbSpline
210
0.0
220
0.0
230
1.0
 70
    24
 71
     3
 72
     8
 73
     4
 74
     0
 42
0.0000000001
 43
0.0000000001
 40
0.0
 40
0.0
 40
0.0
 40
0.0
 40
1.0
 40
1.0
 40
1.0
 40
1.0
 10
15.06156468270171
 20
79.83775855400484
 30
0.0
 10
15.06156468270171
 20
79.83775855400484
 30
0.0
 10
15.36636468270171
 20
79.93935855400483
 30
0.0
 10
15.36636468270171
 20
79.93935855400483
 30
0.0
  0
SPLINE
  5
140
330
A
100
AcDbEntity
  8
Livello 1
370
    15
100
AcDbSpline
210
0.0
220
0.0
230
1.0
 70
    24
 71
     3
 72
     8
 73
     4
 74
     0
 42
0.0000000001
 43
0.0000000001
 40
0.0
 40
0.0
 40
0.0
 40
0.0
 40
1.0
 40
1.0
 40
1.0
 40
1.0
 10
12.62316468270171
 20
78.51695855400484
 30
0.0
 10
12.62316468270171
 20
78.51695855400484
 30
0.0
 10
15.06156468270171
 20
79.83775855400484
 30
0.0
 10
15.06156468270171
 20
79.83775855400484
 30
0.0
  0
SPLINE
  5
141
330
A
100
AcDbEntity
  8
Livello 1
370
    15
100
AcDbSpline
210
0.0
220
0.0
230
1.0
 70
    24
 71
     3
 72
     8
 73
     4
 74
     0
 42
0.0000000001
 43
0.0000000001
 40
0.0
 40
0.0
 40
0.0
 40
0.0
 40
1.0
 40
1.0
 40
1.0
 40
1.0
 10
12.62316468270171
 20
75.16415855400484
 30
0.0
 10
12.62316468270171
 20
75.16415855400484
 30
0.0
 10
12.62316468270171
 20
78.51695855400484
 30
0.0
 10
12.62316468270171
 20
78.51695855400484
 30
0.0
  0
SPLINE
  5
142
330
A
100
AcDbEntity
  8
Livello 1
370
    15
100
AcDbSpline
210
0.0
220
0.0
230
1.0
 70
    24
 71
     3
 72
     8
 73
     4
 74
     0
 42
0.0000000001
 43
0.0000000001
 40
0.0
 40
0.0
 40
0.0
 40
0.0
 40
1.0
 40
1.0
 40
1.0
 40
1.0
 10
15.36636468270171
 20
76.58655855400484
 30
0.0
 10
15.36636468270171
 20
76.58655855400484
 30
0.0
 10
12.62316468270171
 20
75.16415855400484
 30
0.0
 10
12.62316468270171
 20
75.16415855400484
 30
0.0
  0
SPLINE
  5
143
330
A
100
AcDbEntity
  8
Livello 1
370
    15
100
AcDbSpline
210
0.0
220
0.0
230
1.0
 70
    24
 71
     3
 72
     8
 73
     4
 74
     0
 42
0.0000000001
 43
0.0000000001
 40
0.0
 40
0.0
 40
0.0
 40
0.0
 40
1.0
 40
1.0
 40
1.0
 40
1.0
 10
11.50556468270173
 20
79.12655855400481
 30
0.0
 10
11.50556468270173
 20
79.12655855400481
 30
0.0
 10
12.92796468270171
 20
79.93935855400483
 30
0.0
 10
12.92796468270171
 20
79.93935855400483
 30
0.0
  0
SPLINE
  5
144
330
A
100
AcDbEntity
  8
Livello 1
370
    15
100
AcDbSpline
210
0.0
220
0.0
230
1.0
 70
    24
 71
     3
 72
     8
 73
     4
 74
     0
 42
0.0000000001
 43
0.0000000001
 40
0.0
 40
0.0
 40
0.0
 40
0.0
 40
1.0
 40
1.0
 40
1.0
 40
1.0
 10
15.36636468270171
 20
89.59135855400484
 30
0.0
 10
15.36636468270171
 20
89.59135855400484
 30
0.0
 10
12.62316468270171
 20
88.06735855400487
 30
0.0
 10
12.62316468270171
 20
88.06735855400487
 30
0.0
  0
SPLINE
  5
145
330
A
100
AcDbEntity
  8
Livello 1
370
    15
100
AcDbSpline
210
0.0
220
0.0
230
1.0
 70
    24
 71
     3
 72
     8
 73
     4
 74
     0
 42
0.0000000001
 43
0.0000000001
 40
0.0
 40
0.0
 40
0.0
 40
0.0
 40
1.0
 40
1.0
 40
1.0
 40
1.0
 10
15.36636468270171
 20
90.50575855400486
 30
0.0
 10
15.36636468270171
 20
90.50575855400486
 30
0.0
 10
15.36636468270171
 20
89.59135855400484
 30
0.0
 10
15.36636468270171
 20
89.59135855400484
 30
0.0
  0
SPLINE
  5
146
330
A
100
AcDbEntity
  8
Livello 1
370
    15
100
AcDbSpline
210
0.0
220
0.0
230
1.0
 70
     8
 71
     3
 72
    16
 73
    12
 74
     0
 42
0.0000000001
 43
0.0000000001
 40
0.0
 40
0.0
 40
0.0
 40
0.0
 40
0.3333333333333333
 40
0.3333333333333333
 40
0.3333333333333333
 40
0.3333333333333333
 40
0.6666666666666666
 40
0.6666666666666666
 40
0.6666666666666666
 40
0.6666666666666666
 40
1.0
 40
1.0
 40
1.0
 40
1.0
 10
13.84236468270171
 20
63.68335855400483
 30
0.0
 10
13.84236468270171
 20
63.68335855400483
 30
0.0
 10
12.62316468270171
 20
62.97215855400483
 30
0.0
 10
12.62316468270171
 20
62.97215855400483
 30
0.0
 10
12.62316468270171
 20
62.97215855400483
 30
0.0
 10
12.62316468270171
 20
62.97215855400483
 30
0.0
 10
12.62316468270171
 20
66.32495855400484
 30
0.0
 10
12.62316468270171
 20
66.32495855400484
 30
0.0
 10
12.62316468270171
 20
66.32495855400484
 30
0.0
 10
12.62316468270171
 20
66.32495855400484
 30
0.0
 10
15.36636468270171
 20
68.05215855400482
 30
0.0
 10
15.36636468270171
 20
68.05215855400482
 30
0.0
  0
SPLINE
  5
147
330
A
100
AcDbEntity
  8
Livello 1
370
    15
100
AcDbSpline
210
0.0
220
0.0
230
1.0
 70
    27
 71
     3
 72
     8
 73
     4
 74
     0
 42
0.0000000001
 43
0.0000000001
 40
0.0
 40
0.0
 40
0.0
 40
0.0
 40
1.0
 40
1.0
 40
1.0
 40
1.0
 10
17.0935646827017
 20
104.6281585540048
 30
0.0
 10
17.0935646827017
 20
104.6281585540048
 30
0.0
 10
17.0935646827017
 20
104.6281585540048
 30
0.0
 10
17.0935646827017
 20
104.6281585540048
 30
0.0
  0
SPLINE
  5
148
330
A
100
AcDbEntity
  8
Livello 1
370
    15
100
AcDbSpline
210
0.0
220
0.0
230
1.0
 70
     8
 71
     3
 72
    20
 73
    16
 74
     0
 42
0.0000000001
 43
0.0000000001
 40
0.0
 40
0.0
 40
0.0
 40
0.0
 40
0.25
 40
0.25
 40
0.25
 40
0.25
 40
0.5
 40
0.5
 40
0.5
 40
0.5
 40
0.75
 40
0.75
 40
0.75
 40
0.75
 40
1.0
 40
1.0
 40
1.0
 40
1.0
 10
16.89036468270171
 20
102.3929585540048
 30
0.0
 10
17.0935646827017
 20
102.4945585540048
 30
0.0
 10
17.0935646827017
 20
102.7993585540048
 30
0.0
 10
17.0935646827017
 20
102.7993585540048
 30
0.0
 10
17.0935646827017
 20
102.7993585540048
 30
0.0
 10
17.0935646827017
 20
102.7993585540048
 30
0.0
 10
17.0935646827017
 20
104.6281585540048
 30
0.0
 10
17.0935646827017
 20
104.6281585540048
 30
0.0
 10
17.0935646827017
 20
104.6281585540048
 30
0.0
 10
16.99196468270173
 20
106.1521585540048
 30
0.0
 10
15.87436468270171
 20
106.6601585540048
 30
0.0
 10
15.87436468270171
 20
106.6601585540048
 30
0.0
 10
15.87436468270171
 20
106.6601585540048
 30
0.0
 10
15.87436468270171
 20
106.6601585540048
 30
0.0
 10
14.24876468270173
 20
107.5745585540049
 30
0.0
 10
14.24876468270173
 20
107.5745585540049
 30
0.0
  0
SPLINE
  5
149
330
A
100
AcDbEntity
  8
Livello 1
370
    15
100
AcDbSpline
210
0.0
220
0.0
230
1.0
 70
     8
 71
     3
 72
    12
 73
     8
 74
     0
 42
0.0000000001
 43
0.0000000001
 40
0.0
 40
0.0
 40
0.0
 40
0.0
 40
0.5
 40
0.5
 40
0.5
 40
0.5
 40
1.0
 40
1.0
 40
1.0
 40
1.0
 10
12.31836468270171
 20
106.6601585540048
 30
0.0
 10
12.31836468270171
 20
106.6601585540048
 30
0.0
 10
13.74076468270169
 20
107.4729585540048
 30
0.0
 10
13.74076468270169
 20
107.4729585540048
 30
0.0
 10
13.74076468270169
 20
107.4729585540048
 30
0.0
 10
13.74076468270169
 20
107.4729585540048
 30
0.0
 10
14.04556468270169
 20
107.6761585540048
 30
0.0
 10
14.24876468270173
 20
107.5745585540049
 30
0.0
  0
SPLINE
  5
14A
330
A
100
AcDbEntity
  8
Livello 1
370
    15
100
AcDbSpline
210
0.0
220
0.0
230
1.0
 70
    24
 71
     3
 72
     8
 73
     4
 74
     0
 42
0.0000000001
 43
0.0000000001
 40
0.0
 40
0.0
 40
0.0
 40
0.0
 40
1.0
 40
1.0
 40
1.0
 40
1.0
 10
16.89036468270171
 20
102.3929585540048
 30
0.0
 10
16.89036468270171
 20
102.3929585540048
 30
0.0
 10
15.36636468270171
 20
101.4785585540048
 30
0.0
 10
15.36636468270171
 20
101.4785585540048
 30
0.0
  0
SPLINE
  5
14B
330
A
100
AcDbEntity
  8
Livello 1
370
    15
100
AcDbSpline
210
0.0
220
0.0
230
1.0
 70
    24
 71
     3
 72
     8
 73
     4
 74
     0
 42
0.0000000001
 43
0.0000000001
 40
0.0
 40
0.0
 40
0.0
 40
0.0
 40
1.0
 40
1.0
 40
1.0
 40
1.0
 10
15.36636468270171
 20
101.5801585540048
 30
0.0
 10
15.36636468270171
 20
101.5801585540048
 30
0.0
 10
15.36636468270171
 20
90.50575855400486
 30
0.0
 10
15.36636468270171
 20
90.50575855400486
 30
0.0
  0
SPLINE
  5
14C
330
A
100
AcDbEntity
  8
Livello 1
370
    15
100
AcDbSpline
210
0.0
220
0.0
230
1.0
 70
    24
 71
     3
 72
     8
 73
     4
 74
     0
 42
0.0000000001
 43
0.0000000001
 40
0.0
 40
0.0
 40
0.0
 40
0.0
 40
1.0
 40
1.0
 40
1.0
 40
1.0
 10
-9.220835317298323
 20
119.1569585540048
 30
0.0
 10
-9.220835317298323
 20
119.1569585540048
 30
0.0
 10
-4.344035317298278
 20
116.2105585540048
 30
0.0
 10
-4.344035317298278
 20
116.2105585540048
 30
0.0
  0
SPLINE
  5
14D
330
A
100
AcDbEntity
  8
Livello 1
370
    15
100
AcDbSpline
210
0.0
220
0.0
230
1.0
 70
    24
 71
     3
 72
     8
 73
     4
 74
     0
 42
0.0000000001
 43
0.0000000001
 40
0.0
 40
0.0
 40
0.0
 40
0.0
 40
1.0
 40
1.0
 40
1.0
 40
1.0
 10
-11.76083531729829
 20
117.5313585540048
 30
0.0
 10
-11.76083531729829
 20
117.5313585540048
 30
0.0
 10
-9.220835317298323
 20
119.1569585540048
 30
0.0
 10
-9.220835317298323
 20
119.1569585540048
 30
0.0
  0
SPLINE
  5
14E
330
A
100
AcDbEntity
  8
Livello 1
370
    15
100
AcDbSpline
210
0.0
220
0.0
230
1.0
 70
    24
 71
     3
 72
     8
 73
     4
 74
     0
 42
0.0000000001
 43
0.0000000001
 40
0.0
 40
0.0
 40
0.0
 40
0.0
 40
1.0
 40
1.0
 40
1.0
 40
1.0
 10
16.6871646827017
 20
41.02655855400485
 30
0.0
 10
16.6871646827017
 20
41.02655855400485
 30
0.0
 10
12.41996468270173
 20
38.58815855400481
 30
0.0
 10
12.41996468270173
 20
38.58815855400481
 30
0.0
  0
SPLINE
  5
14F
330
A
100
AcDbEntity
  8
Livello 1
370
    15
100
AcDbSpline
210
0.0
220
0.0
230
1.0
 70
     8
 71
     3
 72
    24
 73
    20
 74
     0
 42
0.0000000001
 43
0.0000000001
 40
0.0
 40
0.0
 40
0.0
 40
0.0
 40
0.2
 40
0.2
 40
0.2
 40
0.2
 40
0.4
 40
0.4
 40
0.4
 40
0.4
 40
0.6000000000000001
 40
0.6000000000000001
 40
0.6000000000000001
 40
0.6000000000000001
 40
0.8
 40
0.8
 40
0.8
 40
0.8
 40
1.0
 40
1.0
 40
1.0
 40
1.0
 10
-43.25683531729827
 20
135.8193585540048
 30
0.0
 10
-43.25683531729827
 20
135.8193585540048
 30
0.0
 10
-39.39603531729826
 20
138.0545585540048
 30
0.0
 10
-39.39603531729826
 20
138.0545585540048
 30
0.0
 10
-39.39603531729826
 20
138.0545585540048
 30
0.0
 10
-39.39603531729826
 20
138.0545585540048
 30
0.0
 10
-38.98963531729826
 20
138.4609585540048
 30
0.0
 10
-38.0752353172983
 20
137.8513585540048
 30
0.0
 10
-38.0752353172983
 20
137.8513585540048
 30
0.0
 10
-38.0752353172983
 20
137.8513585540048
 30
0.0
 10
-36.55123531729826
 20
136.9369585540048
 30
0.0
 10
-36.55123531729826
 20
136.9369585540048
 30
0.0
 10
-36.55123531729826
 20
136.9369585540048
 30
0.0
 10
-36.55123531729826
 20
136.9369585540048
 30
0.0
 10
-36.34803531729826
 20
136.8353585540048
 30
0.0
 10
-36.34803531729826
 20
136.5305585540048
 30
0.0
 10
-36.34803531729826
 20
136.5305585540048
 30
0.0
 10
-36.34803531729826
 20
136.5305585540048
 30
0.0
 10
-36.34803531729826
 20
136.2257585540048
 30
0.0
 10
-36.55123531729826
 20
136.1241585540048
 30
0.0
  0
SPLINE
  5
150
330
A
100
AcDbEntity
  8
Livello 1
370
    15
100
AcDbSpline
210
0.0
220
0.0
230
1.0
 70
    24
 71
     3
 72
     8
 73
     4
 74
     0
 42
0.0000000001
 43
0.0000000001
 40
0.0
 40
0.0
 40
0.0
 40
0.0
 40
1.0
 40
1.0
 40
1.0
 40
1.0
 10
13.84236468270171
 20
63.68335855400483
 30
0.0
 10
13.84236468270171
 20
63.68335855400483
 30
0.0
 10
12.62316468270171
 20
62.97215855400483
 30
0.0
 10
12.62316468270171
 20
62.97215855400483
 30
0.0
  0
SPLINE
  5
151
330
A
100
AcDbEntity
  8
Livello 1
370
    15
100
AcDbSpline
210
0.0
220
0.0
230
1.0
 70
    24
 71
     3
 72
     8
 73
     4
 74
     0
 42
0.0000000001
 43
0.0000000001
 40
0.0
 40
0.0
 40
0.0
 40
0.0
 40
1.0
 40
1.0
 40
1.0
 40
1.0
 10
15.36636468270171
 20
89.59135855400484
 30
0.0
 10
15.36636468270171
 20
89.59135855400484
 30
0.0
 10
12.62316468270171
 20
88.06735855400487
 30
0.0
 10
12.62316468270171
 20
88.06735855400487
 30
0.0
  0
SPLINE
  5
152
330
A
100
AcDbEntity
  8
Livello 1
370
    15
100
AcDbSpline
210
0.0
220
0.0
230
1.0
 70
    24
 71
     3
 72
     8
 73
     4
 74
     0
 42
0.0000000001
 43
0.0000000001
 40
0.0
 40
0.0
 40
0.0
 40
0.0
 40
1.0
 40
1.0
 40
1.0
 40
1.0
 10
11.50556468270173
 20
79.12655855400481
 30
0.0
 10
11.50556468270173
 20
79.12655855400481
 30
0.0
 10
12.92796468270171
 20
79.93935855400483
 30
0.0
 10
12.92796468270171
 20
79.93935855400483
 30
0.0
  0
SPLINE
  5
153
330
A
100
AcDbEntity
  8
Livello 1
370
    15
100
AcDbSpline
210
0.0
220
0.0
230
1.0
 70
    24
 71
     3
 72
     8
 73
     4
 74
     0
 42
0.0000000001
 43
0.0000000001
 40
0.0
 40
0.0
 40
0.0
 40
0.0
 40
1.0
 40
1.0
 40
1.0
 40
1.0
 10
15.06156468270171
 20
79.83775855400484
 30
0.0
 10
15.06156468270171
 20
79.83775855400484
 30
0.0
 10
12.62316468270171
 20
78.51695855400484
 30
0.0
 10
12.62316468270171
 20
78.51695855400484
 30
0.0
  0
SPLINE
  5
154
330
A
100
AcDbEntity
  8
Livello 1
370
    15
100
AcDbSpline
210
0.0
220
0.0
230
1.0
 70
    24
 71
     3
 72
     8
 73
     4
 74
     0
 42
0.0000000001
 43
0.0000000001
 40
0.0
 40
0.0
 40
0.0
 40
0.0
 40
1.0
 40
1.0
 40
1.0
 40
1.0
 10
-11.76083531729829
 20
117.5313585540048
 30
0.0
 10
-11.76083531729829
 20
117.5313585540048
 30
0.0
 10
-9.220835317298323
 20
119.1569585540048
 30
0.0
 10
-9.220835317298323
 20
119.1569585540048
 30
0.0
  0
SPLINE
  5
155
330
A
100
AcDbEntity
  8
Livello 1
370
    15
100
AcDbSpline
210
0.0
220
0.0
230
1.0
 70
    24
 71
     3
 72
     8
 73
     4
 74
     0
 42
0.0000000001
 43
0.0000000001
 40
0.0
 40
0.0
 40
0.0
 40
0.0
 40
1.0
 40
1.0
 40
1.0
 40
1.0
 10
-19.48243531729827
 20
122.0017585540048
 30
0.0
 10
-19.48243531729827
 20
122.0017585540048
 30
0.0
 10
-16.6376353172983
 20
123.4241585540048
 30
0.0
 10
-16.6376353172983
 20
123.4241585540048
 30
0.0
  0
SPLINE
  5
156
330
A
100
AcDbEntity
  8
Livello 1
370
    15
100
AcDbSpline
210
0.0
220
0.0
230
1.0
 70
     8
 71
     3
 72
    20
 73
    16
 74
     0
 42
0.0000000001
 43
0.0000000001
 40
0.0
 40
0.0
 40
0.0
 40
0.0
 40
0.25
 40
0.25
 40
0.25
 40
0.25
 40
0.5
 40
0.5
 40
0.5
 40
0.5
 40
0.75
 40
0.75
 40
0.75
 40
0.75
 40
1.0
 40
1.0
 40
1.0
 40
1.0
 10
14.14716468270171
 20
54.13295855400482
 30
0.0
 10
14.14716468270171
 20
54.13295855400482
 30
0.0
 10
14.04556468270169
 20
53.92975855400482
 30
0.0
 10
14.04556468270169
 20
53.92975855400482
 30
0.0
 10
14.04556468270169
 20
53.92975855400482
 30
0.0
 10
14.04556468270169
 20
53.92975855400482
 30
0.0
 10
13.94396468270173
 20
53.72655855400484
 30
0.0
 10
13.94396468270173
 20
53.72655855400484
 30
0.0
 10
13.94396468270173
 20
53.72655855400484
 30
0.0
 10
13.94396468270173
 20
53.72655855400484
 30
0.0
 10
13.74076468270169
 20
53.52335855400482
 30
0.0
 10
13.74076468270169
 20
53.52335855400482
 30
0.0
 10
13.74076468270169
 20
53.52335855400482
 30
0.0
 10
13.74076468270169
 20
53.52335855400482
 30
0.0
 10
13.53756468270171
 20
53.42175855400483
 30
0.0
 10
13.53756468270171
 20
53.42175855400483
 30
0.0
  0
SPLINE
  5
157
330
A
100
AcDbEntity
  8
Livello 1
370
    15
100
AcDbSpline
210
0.0
220
0.0
230
1.0
 70
    24
 71
     3
 72
     8
 73
     4
 74
     0
 42
0.0000000001
 43
0.0000000001
 40
0.0
 40
0.0
 40
0.0
 40
0.0
 40
1.0
 40
1.0
 40
1.0
 40
1.0
 10
13.74076468270169
 20
53.52335855400482
 30
0.0
 10
13.74076468270169
 20
53.52335855400482
 30
0.0
 10
13.53756468270171
 20
53.42175855400483
 30
0.0
 10
13.53756468270171
 20
53.42175855400483
 30
0.0
  0
SPLINE
  5
158
330
A
100
AcDbEntity
  8
Livello 1
370
    15
100
AcDbSpline
210
0.0
220
0.0
230
1.0
 70
    24
 71
     3
 72
     8
 73
     4
 74
     0
 42
0.0000000001
 43
0.0000000001
 40
0.0
 40
0.0
 40
0.0
 40
0.0
 40
1.0
 40
1.0
 40
1.0
 40
1.0
 10
10.38796468270172
 20
59.41615855400483
 30
0.0
 10
10.38796468270172
 20
59.41615855400483
 30
0.0
 10
10.69276468270169
 20
59.61935855400481
 30
0.0
 10
10.69276468270169
 20
59.61935855400481
 30
0.0
  0
SPLINE
  5
159
330
A
100
AcDbEntity
  8
Livello 1
370
    15
100
AcDbSpline
210
0.0
220
0.0
230
1.0
 70
    24
 71
     3
 72
     8
 73
     4
 74
     0
 42
0.0000000001
 43
0.0000000001
 40
0.0
 40
0.0
 40
0.0
 40
0.0
 40
1.0
 40
1.0
 40
1.0
 40
1.0
 10
10.69276468270169
 20
58.70495855400482
 30
0.0
 10
10.69276468270169
 20
58.70495855400482
 30
0.0
 10
10.69276468270169
 20
60.94015855400483
 30
0.0
 10
10.69276468270169
 20
60.94015855400483
 30
0.0
  0
SPLINE
  5
15A
330
A
100
AcDbEntity
  8
Livello 1
370
    15
100
AcDbSpline
210
0.0
220
0.0
230
1.0
 70
    24
 71
     3
 72
     8
 73
     4
 74
     0
 42
0.0000000001
 43
0.0000000001
 40
0.0
 40
0.0
 40
0.0
 40
0.0
 40
1.0
 40
1.0
 40
1.0
 40
1.0
 10
10.69276468270169
 20
52.81215855400485
 30
0.0
 10
10.69276468270169
 20
52.81215855400485
 30
0.0
 10
10.69276468270169
 20
53.92975855400482
 30
0.0
 10
10.69276468270169
 20
53.92975855400482
 30
0.0
  0
SPLINE
  5
15B
330
A
100
AcDbEntity
  8
Livello 1
370
    15
100
AcDbSpline
210
0.0
220
0.0
230
1.0
 70
     8
 71
     3
 72
    12
 73
     8
 74
     0
 42
0.0000000001
 43
0.0000000001
 40
0.0
 40
0.0
 40
0.0
 40
0.0
 40
0.5
 40
0.5
 40
0.5
 40
0.5
 40
1.0
 40
1.0
 40
1.0
 40
1.0
 10
11.60716468270172
 20
58.19695855400485
 30
0.0
 10
11.60716468270172
 20
58.19695855400485
 30
0.0
 10
11.60716468270172
 20
60.43215855400482
 30
0.0
 10
11.60716468270172
 20
60.43215855400482
 30
0.0
 10
11.60716468270172
 20
60.43215855400482
 30
0.0
 10
11.60716468270172
 20
60.43215855400482
 30
0.0
 10
13.53756468270171
 20
61.54975855400483
 30
0.0
 10
13.53756468270171
 20
61.54975855400483
 30
0.0
  0
SPLINE
  5
15C
330
A
100
AcDbEntity
  8
Livello 1
370
    15
100
AcDbSpline
210
0.0
220
0.0
230
1.0
 70
     8
 71
     3
 72
    12
 73
     8
 74
     0
 42
0.0000000001
 43
0.0000000001
 40
0.0
 40
0.0
 40
0.0
 40
0.0
 40
0.5
 40
0.5
 40
0.5
 40
0.5
 40
1.0
 40
1.0
 40
1.0
 40
1.0
 10
13.53756468270171
 20
53.42175855400483
 30
0.0
 10
13.53756468270171
 20
53.42175855400483
 30
0.0
 10
11.60716468270172
 20
52.30415855400482
 30
0.0
 10
11.60716468270172
 20
52.30415855400482
 30
0.0
 10
11.60716468270172
 20
52.30415855400482
 30
0.0
 10
11.60716468270172
 20
52.30415855400482
 30
0.0
 10
11.60716468270172
 20
54.53935855400483
 30
0.0
 10
11.60716468270172
 20
54.53935855400483
 30
0.0
  0
SPLINE
  5
15D
330
A
100
AcDbEntity
  8
Livello 1
370
    15
100
AcDbSpline
210
0.0
220
0.0
230
1.0
 70
    24
 71
     3
 72
     8
 73
     4
 74
     0
 42
0.0000000001
 43
0.0000000001
 40
0.0
 40
0.0
 40
0.0
 40
0.0
 40
1.0
 40
1.0
 40
1.0
 40
1.0
 10
11.60716468270172
 20
60.43215855400482
 30
0.0
 10
11.60716468270172
 20
60.43215855400482
 30
0.0
 10
10.69276468270169
 20
60.94015855400483
 30
0.0
 10
10.69276468270169
 20
60.94015855400483
 30
0.0
  0
SPLINE
  5
15E
330
A
100
AcDbEntity
  8
Livello 1
370
    15
100
AcDbSpline
210
0.0
220
0.0
230
1.0
 70
    24
 71
     3
 72
     8
 73
     4
 74
     0
 42
0.0000000001
 43
0.0000000001
 40
0.0
 40
0.0
 40
0.0
 40
0.0
 40
1.0
 40
1.0
 40
1.0
 40
1.0
 10
11.60716468270172
 20
52.30415855400482
 30
0.0
 10
11.60716468270172
 20
52.30415855400482
 30
0.0
 10
10.69276468270169
 20
52.81215855400485
 30
0.0
 10
10.69276468270169
 20
52.81215855400485
 30
0.0
  0
SPLINE
  5
15F
330
A
100
AcDbEntity
  8
Livello 1
370
    15
100
AcDbSpline
210
0.0
220
0.0
230
1.0
 70
    24
 71
     3
 72
     8
 73
     4
 74
     0
 42
0.0000000001
 43
0.0000000001
 40
0.0
 40
0.0
 40
0.0
 40
0.0
 40
1.0
 40
1.0
 40
1.0
 40
1.0
 10
13.53756468270171
 20
53.42175855400483
 30
0.0
 10
13.53756468270171
 20
53.42175855400483
 30
0.0
 10
11.60716468270172
 20
52.30415855400482
 30
0.0
 10
11.60716468270172
 20
52.30415855400482
 30
0.0
  0
SPLINE
  5
160
330
A
100
AcDbEntity
  8
Livello 1
370
    15
100
AcDbSpline
210
0.0
220
0.0
230
1.0
 70
    24
 71
     3
 72
     8
 73
     4
 74
     0
 42
0.0000000001
 43
0.0000000001
 40
0.0
 40
0.0
 40
0.0
 40
0.0
 40
1.0
 40
1.0
 40
1.0
 40
1.0
 10
10.69276468270169
 20
52.81215855400485
 30
0.0
 10
10.69276468270169
 20
52.81215855400485
 30
0.0
 10
10.69276468270169
 20
53.92975855400482
 30
0.0
 10
10.69276468270169
 20
53.92975855400482
 30
0.0
  0
SPLINE
  5
161
330
A
100
AcDbEntity
  8
Livello 1
370
    15
100
AcDbSpline
210
0.0
220
0.0
230
1.0
 70
    24
 71
     3
 72
     8
 73
     4
 74
     0
 42
0.0000000001
 43
0.0000000001
 40
0.0
 40
0.0
 40
0.0
 40
0.0
 40
1.0
 40
1.0
 40
1.0
 40
1.0
 10
11.60716468270172
 20
52.30415855400482
 30
0.0
 10
11.60716468270172
 20
52.30415855400482
 30
0.0
 10
10.69276468270169
 20
52.81215855400485
 30
0.0
 10
10.69276468270169
 20
52.81215855400485
 30
0.0
  0
SPLINE
  5
162
330
A
100
AcDbEntity
  8
Livello 1
370
    15
100
AcDbSpline
210
0.0
220
0.0
230
1.0
 70
    24
 71
     3
 72
     8
 73
     4
 74
     0
 42
0.0000000001
 43
0.0000000001
 40
0.0
 40
0.0
 40
0.0
 40
0.0
 40
1.0
 40
1.0
 40
1.0
 40
1.0
 10
11.60716468270172
 20
54.53935855400483
 30
0.0
 10
11.60716468270172
 20
54.53935855400483
 30
0.0
 10
11.60716468270172
 20
52.30415855400482
 30
0.0
 10
11.60716468270172
 20
52.30415855400482
 30
0.0
  0
SPLINE
  5
163
330
A
100
AcDbEntity
  8
Livello 1
370
    15
100
AcDbSpline
210
0.0
220
0.0
230
1.0
 70
    24
 71
     3
 72
     8
 73
     4
 74
     0
 42
0.0000000001
 43
0.0000000001
 40
0.0
 40
0.0
 40
0.0
 40
0.0
 40
1.0
 40
1.0
 40
1.0
 40
1.0
 10
10.69276468270169
 20
58.70495855400482
 30
0.0
 10
10.69276468270169
 20
58.70495855400482
 30
0.0
 10
10.69276468270169
 20
60.94015855400483
 30
0.0
 10
10.69276468270169
 20
60.94015855400483
 30
0.0
  0
SPLINE
  5
164
330
A
100
AcDbEntity
  8
Livello 1
370
    15
100
AcDbSpline
210
0.0
220
0.0
230
1.0
 70
    24
 71
     3
 72
     8
 73
     4
 74
     0
 42
0.0000000001
 43
0.0000000001
 40
0.0
 40
0.0
 40
0.0
 40
0.0
 40
1.0
 40
1.0
 40
1.0
 40
1.0
 10
11.60716468270172
 20
58.19695855400485
 30
0.0
 10
11.60716468270172
 20
58.19695855400485
 30
0.0
 10
10.69276468270169
 20
58.70495855400482
 30
0.0
 10
10.69276468270169
 20
58.70495855400482
 30
0.0
  0
SPLINE
  5
165
330
A
100
AcDbEntity
  8
Livello 1
370
    15
100
AcDbSpline
210
0.0
220
0.0
230
1.0
 70
    24
 71
     3
 72
     8
 73
     4
 74
     0
 42
0.0000000001
 43
0.0000000001
 40
0.0
 40
0.0
 40
0.0
 40
0.0
 40
1.0
 40
1.0
 40
1.0
 40
1.0
 10
11.60716468270172
 20
60.43215855400482
 30
0.0
 10
11.60716468270172
 20
60.43215855400482
 30
0.0
 10
11.60716468270172
 20
58.19695855400485
 30
0.0
 10
11.60716468270172
 20
58.19695855400485
 30
0.0
  0
SPLINE
  5
166
330
A
100
AcDbEntity
  8
Livello 1
370
    15
100
AcDbSpline
210
0.0
220
0.0
230
1.0
 70
    24
 71
     3
 72
     8
 73
     4
 74
     0
 42
0.0000000001
 43
0.0000000001
 40
0.0
 40
0.0
 40
0.0
 40
0.0
 40
1.0
 40
1.0
 40
1.0
 40
1.0
 10
10.69276468270169
 20
60.94015855400483
 30
0.0
 10
10.69276468270169
 20
60.94015855400483
 30
0.0
 10
11.60716468270172
 20
60.43215855400482
 30
0.0
 10
11.60716468270172
 20
60.43215855400482
 30
0.0
  0
SPLINE
  5
167
330
A
100
AcDbEntity
  8
Livello 1
370
    15
100
AcDbSpline
210
0.0
220
0.0
230
1.0
 70
    24
 71
     3
 72
     8
 73
     4
 74
     0
 42
0.0000000001
 43
0.0000000001
 40
0.0
 40
0.0
 40
0.0
 40
0.0
 40
1.0
 40
1.0
 40
1.0
 40
1.0
 10
10.38796468270172
 20
59.41615855400483
 30
0.0
 10
10.38796468270172
 20
59.41615855400483
 30
0.0
 10
10.69276468270169
 20
59.61935855400481
 30
0.0
 10
10.69276468270169
 20
59.61935855400481
 30
0.0
  0
SPLINE
  5
168
330
A
100
AcDbEntity
  8
Livello 1
370
    15
100
AcDbSpline
210
0.0
220
0.0
230
1.0
 70
     8
 71
     3
 72
    20
 73
    16
 74
     0
 42
0.0000000001
 43
0.0000000001
 40
0.0
 40
0.0
 40
0.0
 40
0.0
 40
0.25
 40
0.25
 40
0.25
 40
0.25
 40
0.5
 40
0.5
 40
0.5
 40
0.5
 40
0.75
 40
0.75
 40
0.75
 40
0.75
 40
1.0
 40
1.0
 40
1.0
 40
1.0
 10
11.60716468270172
 20
58.19695855400485
 30
0.0
 10
11.60716468270172
 20
58.19695855400485
 30
0.0
 10
9.879964682701713
 20
57.18095855400482
 30
0.0
 10
9.879964682701713
 20
57.18095855400482
 30
0.0
 10
9.879964682701713
 20
57.18095855400482
 30
0.0
 10
9.879964682701713
 20
57.18095855400482
 30
0.0
 10
9.473564682701693
 20
56.97775855400482
 30
0.0
 10
9.168764682701693
 20
57.07935855400485
 30
0.0
 10
9.168764682701693
 20
57.07935855400485
 30
0.0
 10
8.96556468270171
 20
57.28255855400483
 30
0.0
 10
9.067164682701699
 20
57.38415855400482
 30
0.0
 10
9.067164682701699
 20
57.38415855400482
 30
0.0
 10
9.067164682701699
 20
57.38415855400482
 30
0.0
 10
9.067164682701699
 20
57.38415855400482
 30
0.0
 10
10.38796468270172
 20
59.41615855400483
 30
0.0
 10
10.38796468270172
 20
59.41615855400483
 30
0.0
  0
SPLINE
  5
169
330
A
100
AcDbEntity
  8
Livello 1
370
    15
100
AcDbSpline
210
0.0
220
0.0
230
1.0
 70
     8
 71
     3
 72
    20
 73
    16
 74
     0
 42
0.0000000001
 43
0.0000000001
 40
0.0
 40
0.0
 40
0.0
 40
0.0
 40
0.25
 40
0.25
 40
0.25
 40
0.25
 40
0.5
 40
0.5
 40
0.5
 40
0.5
 40
0.75
 40
0.75
 40
0.75
 40
0.75
 40
1.0
 40
1.0
 40
1.0
 40
1.0
 10
11.60716468270172
 20
54.53935855400483
 30
0.0
 10
11.60716468270172
 20
54.53935855400483
 30
0.0
 10
9.879964682701713
 20
53.42175855400483
 30
0.0
 10
9.879964682701713
 20
53.42175855400483
 30
0.0
 10
9.879964682701713
 20
53.42175855400483
 30
0.0
 10
9.879964682701713
 20
53.42175855400483
 30
0.0
 10
9.575164682701739
 20
53.32015855400483
 30
0.0
 10
9.27036468270171
 20
53.42175855400483
 30
0.0
 10
9.27036468270171
 20
53.42175855400483
 30
0.0
 10
9.067164682701699
 20
53.52335855400482
 30
0.0
 10
9.067164682701699
 20
53.62495855400485
 30
0.0
 10
9.067164682701699
 20
53.62495855400485
 30
0.0
 10
9.067164682701699
 20
53.62495855400485
 30
0.0
 10
9.067164682701699
 20
53.62495855400485
 30
0.0
 10
9.067164682701699
 20
57.28255855400483
 30
0.0
 10
9.067164682701699
 20
57.28255855400483
 30
0.0
  0
SPLINE
  5
16A
330
A
100
AcDbEntity
  8
Livello 1
370
    15
100
AcDbSpline
210
0.0
220
0.0
230
1.0
 70
    27
 71
     3
 72
     8
 73
     4
 74
     0
 42
0.0000000001
 43
0.0000000001
 40
0.0
 40
0.0
 40
0.0
 40
0.0
 40
1.0
 40
1.0
 40
1.0
 40
1.0
 10
9.067164682701699
 20
53.62495855400485
 30
0.0
 10
9.067164682701699
 20
53.62495855400485
 30
0.0
 10
9.067164682701699
 20
53.62495855400485
 30
0.0
 10
9.067164682701699
 20
53.62495855400485
 30
0.0
  0
SPLINE
  5
16B
330
A
100
AcDbEntity
  8
Livello 1
370
    15
100
AcDbSpline
210
0.0
220
0.0
230
1.0
 70
    24
 71
     3
 72
     8
 73
     4
 74
     0
 42
0.0000000001
 43
0.0000000001
 40
0.0
 40
0.0
 40
0.0
 40
0.0
 40
1.0
 40
1.0
 40
1.0
 40
1.0
 10
10.69276468270169
 20
58.70495855400482
 30
0.0
 10
10.69276468270169
 20
58.70495855400482
 30
0.0
 10
11.60716468270172
 20
58.19695855400485
 30
0.0
 10
11.60716468270172
 20
58.19695855400485
 30
0.0
  0
SPLINE
  5
16C
330
A
100
AcDbEntity
  8
Livello 1
370
    15
100
AcDbSpline
210
0.0
220
0.0
230
1.0
 70
     8
 71
     3
 72
    16
 73
    12
 74
     0
 42
0.0000000001
 43
0.0000000001
 40
0.0
 40
0.0
 40
0.0
 40
0.0
 40
0.3333333333333333
 40
0.3333333333333333
 40
0.3333333333333333
 40
0.3333333333333333
 40
0.6666666666666666
 40
0.6666666666666666
 40
0.6666666666666666
 40
0.6666666666666666
 40
1.0
 40
1.0
 40
1.0
 40
1.0
 10
11.40396468270171
 20
37.36895855400482
 30
0.0
 10
11.40396468270171
 20
37.36895855400482
 30
0.0
 10
12.01356468270171
 20
37.67375855400481
 30
0.0
 10
12.01356468270171
 20
37.67375855400481
 30
0.0
 10
12.01356468270171
 20
37.67375855400481
 30
0.0
 10
12.62316468270171
 20
38.18175855400483
 30
0.0
 10
12.52156468270169
 20
39.09615855400483
 30
0.0
 10
12.52156468270169
 20
39.09615855400483
 30
0.0
 10
12.52156468270169
 20
39.09615855400483
 30
0.0
 10
12.52156468270169
 20
39.09615855400483
 30
0.0
 10
12.62316468270171
 20
52.71055855400483
 30
0.0
 10
12.62316468270171
 20
52.71055855400483
 30
0.0
  0
SPLINE
  5
16D
330
A
100
AcDbEntity
  8
Livello 1
370
    15
100
AcDbSpline
210
0.0
220
0.0
230
1.0
 70
     8
 71
     3
 72
    84
 73
    80
 74
     0
 42
0.0000000001
 43
0.0000000001
 40
0.0
 40
0.0
 40
0.0
 40
0.0
 40
0.05
 40
0.05
 40
0.05
 40
0.05
 40
0.1
 40
0.1
 40
0.1
 40
0.1
 40
0.15
 40
0.15
 40
0.15
 40
0.15
 40
0.2
 40
0.2
 40
0.2
 40
0.2
 40
0.25
 40
0.25
 40
0.25
 40
0.25
 40
0.3
 40
0.3
 40
0.3
 40
0.3
 40
0.35
 40
0.35
 40
0.35
 40
0.35
 40
0.4
 40
0.4
 40
0.4
 40
0.4
 40
0.45
 40
0.45
 40
0.45
 40
0.45
 40
0.5
 40
0.5
 40
0.5
 40
0.5
 40
0.55
 40
0.55
 40
0.55
 40
0.55
 40
0.6
 40
0.6
 40
0.6
 40
0.6
 40
0.65
 40
0.65
 40
0.65
 40
0.65
 40
0.7000000000000001
 40
0.7000000000000001
 40
0.7000000000000001
 40
0.7000000000000001
 40
0.7500000000000001
 40
0.7500000000000001
 40
0.7500000000000001
 40
0.7500000000000001
 40
0.8000000000000001
 40
0.8000000000000001
 40
0.8000000000000001
 40
0.8000000000000001
 40
0.85
 40
0.85
 40
0.85
 40
0.85
 40
0.9000000000000001
 40
0.9000000000000001
 40
0.9000000000000001
 40
0.9000000000000001
 40
0.9500000000000003
 40
0.9500000000000003
 40
0.9500000000000003
 40
0.9500000000000003
 40
1.0
 40
1.0
 40
1.0
 40
1.0
 10
-44.9840353172983
 20
135.3113585540048
 30
0.0
 10
-44.9840353172983
 20
135.3113585540048
 30
0.0
 10
-44.2728353172983
 20
135.7177585540048
 30
0.0
 10
-44.2728353172983
 20
135.7177585540048
 30
0.0
 10
-44.2728353172983
 20
135.7177585540048
 30
0.0
 10
-44.2728353172983
 20
135.7177585540048
 30
0.0
 10
-43.76483531729831
 20
136.0225585540048
 30
0.0
 10
-42.95203531729828
 20
135.6161585540048
 30
0.0
 10
-42.95203531729828
 20
135.6161585540048
 30
0.0
 10
-42.95203531729828
 20
135.6161585540048
 30
0.0
 10
10.48956468270171
 20
104.5265585540048
 30
0.0
 10
10.48956468270171
 20
104.5265585540048
 30
0.0
 10
10.48956468270171
 20
104.5265585540048
 30
0.0
 10
10.48956468270171
 20
104.5265585540048
 30
0.0
 10
12.72476468270173
 20
103.3073585540049
 30
0.0
 10
12.72476468270173
 20
100.6657585540048
 30
0.0
 10
12.72476468270173
 20
100.6657585540048
 30
0.0
 10
12.72476468270173
 20
100.6657585540048
 30
0.0
 10
12.72476468270173
 20
88.06735855400487
 30
0.0
 10
12.72476468270173
 20
88.06735855400487
 30
0.0
 10
12.72476468270173
 20
88.06735855400487
 30
0.0
 10
12.72476468270173
 20
88.06735855400487
 30
0.0
 10
12.01356468270171
 20
87.66095855400488
 30
0.0
 10
12.01356468270171
 20
87.66095855400488
 30
0.0
 10
12.01356468270171
 20
87.66095855400488
 30
0.0
 10
12.01356468270171
 20
87.66095855400488
 30
0.0
 10
11.09916468270174
 20
88.27055855400487
 30
0.0
 10
11.09916468270174
 20
88.27055855400487
 30
0.0
 10
11.09916468270174
 20
88.27055855400487
 30
0.0
 10
11.09916468270174
 20
88.27055855400487
 30
0.0
 10
11.09916468270174
 20
100.8689585540049
 30
0.0
 10
11.09916468270174
 20
100.8689585540049
 30
0.0
 10
11.09916468270174
 20
100.8689585540049
 30
0.0
 10
11.09916468270174
 20
102.2913585540048
 30
0.0
 10
9.879964682701713
 20
103.1041585540048
 30
0.0
 10
9.879964682701713
 20
103.1041585540048
 30
0.0
 10
9.879964682701713
 20
103.1041585540048
 30
0.0
 10
9.879964682701713
 20
103.1041585540048
 30
0.0
 10
-43.46003531729827
 20
134.0921585540048
 30
0.0
 10
-43.46003531729827
 20
134.0921585540048
 30
0.0
 10
-43.46003531729827
 20
134.0921585540048
 30
0.0
 10
-43.96803531729829
 20
134.2953585540048
 30
0.0
 10
-44.2728353172983
 20
134.0921585540048
 30
0.0
 10
-44.2728353172983
 20
134.0921585540048
 30
0.0
 10
-44.2728353172983
 20
134.0921585540048
 30
0.0
 10
-44.2728353172983
 20
134.0921585540048
 30
0.0
 10
-46.40643531729828
 20
132.8729585540048
 30
0.0
 10
-46.40643531729828
 20
132.8729585540048
 30
0.0
 10
-46.40643531729828
 20
132.8729585540048
 30
0.0
 10
-46.40643531729828
 20
132.8729585540048
 30
0.0
 10
-47.01603531729829
 20
132.6697585540048
 30
0.0
 10
-47.01603531729829
 20
131.6537585540048
 30
0.0
 10
-47.01603531729829
 20
131.6537585540048
 30
0.0
 10
-47.01603531729829
 20
131.6537585540048
 30
0.0
 10
-47.2192353172983
 20
70.08415855400483
 30
0.0
 10
-47.2192353172983
 20
70.08415855400483
 30
0.0
 10
-47.2192353172983
 20
70.08415855400483
 30
0.0
 10
-47.2192353172983
 20
70.08415855400483
 30
0.0
 10
-47.11763531729824
 20
68.96655855400485
 30
0.0
 10
-46.20323531729829
 20
68.35695855400482
 30
0.0
 10
-46.20323531729829
 20
68.35695855400482
 30
0.0
 10
-46.20323531729829
 20
68.35695855400482
 30
0.0
 10
7.136764682701707
 20
37.36895855400482
 30
0.0
 10
7.136764682701707
 20
37.36895855400482
 30
0.0
 10
7.136764682701707
 20
37.36895855400482
 30
0.0
 10
7.136764682701707
 20
37.36895855400482
 30
0.0
 10
7.847964682701727
 20
36.86095855400485
 30
0.0
 10
8.55916468270172
 20
37.36895855400482
 30
0.0
 10
8.55916468270172
 20
37.36895855400482
 30
0.0
 10
8.55916468270172
 20
37.36895855400482
 30
0.0
 10
10.5911646827017
 20
38.48655855400483
 30
0.0
 10
10.5911646827017
 20
38.48655855400483
 30
0.0
 10
10.5911646827017
 20
38.48655855400483
 30
0.0
 10
10.99756468270169
 20
38.79135855400483
 30
0.0
 10
10.89596468270173
 20
39.29935855400481
 30
0.0
 10
10.89596468270173
 20
39.29935855400481
 30
0.0
 10
10.89596468270173
 20
39.29935855400481
 30
0.0
 10
10.89596468270173
 20
39.29935855400481
 30
0.0
 10
10.99756468270169
 20
52.71055855400483
 30
0.0
 10
10.99756468270169
 20
52.71055855400483
 30
0.0
  0
SPLINE
  5
16E
330
A
100
AcDbEntity
  8
Livello 1
370
    15
100
AcDbSpline
210
0.0
220
0.0
230
1.0
 70
     8
 71
     3
 72
    24
 73
    20
 74
     0
 42
0.0000000001
 43
0.0000000001
 40
0.0
 40
0.0
 40
0.0
 40
0.0
 40
0.2
 40
0.2
 40
0.2
 40
0.2
 40
0.4
 40
0.4
 40
0.4
 40
0.4
 40
0.6000000000000001
 40
0.6000000000000001
 40
0.6000000000000001
 40
0.6000000000000001
 40
0.8
 40
0.8
 40
0.8
 40
0.8
 40
1.0
 40
1.0
 40
1.0
 40
1.0
 10
-46.10163531729829
 20
129.9265585540049
 30
0.0
 10
-46.10163531729829
 20
129.9265585540049
 30
0.0
 10
-45.79683531729829
 20
130.6377585540048
 30
0.0
 10
-44.88243531729828
 20
130.2313585540048
 30
0.0
 10
-44.88243531729828
 20
130.2313585540048
 30
0.0
 10
-44.88243531729828
 20
130.2313585540048
 30
0.0
 10
5.714364682701699
 20
100.8689585540049
 30
0.0
 10
5.714364682701699
 20
100.8689585540049
 30
0.0
 10
5.714364682701699
 20
100.8689585540049
 30
0.0
 10
5.714364682701699
 20
100.8689585540049
 30
0.0
 10
7.035164682701719
 20
100.1577585540048
 30
0.0
 10
7.136764682701707
 20
98.43055855400482
 30
0.0
 10
7.136764682701707
 20
98.43055855400482
 30
0.0
 10
7.136764682701707
 20
98.43055855400482
 30
0.0
 10
6.933564682701726
 20
40.11215855400481
 30
0.0
 10
6.933564682701726
 20
40.11215855400481
 30
0.0
 10
6.933564682701726
 20
40.11215855400481
 30
0.0
 10
6.933564682701726
 20
40.11215855400481
 30
0.0
 10
7.035164682701719
 20
38.89295855400482
 30
0.0
 10
6.019164682701699
 20
39.09615855400483
 30
0.0
  0
SPLINE
  5
16F
330
A
100
AcDbEntity
  8
Livello 1
370
    15
100
AcDbSpline
210
0.0
220
0.0
230
1.0
 70
     8
 71
     3
 72
    28
 73
    24
 74
     0
 42
0.0000000001
 43
0.0000000001
 40
0.0
 40
0.0
 40
0.0
 40
0.0
 40
0.1666666666666667
 40
0.1666666666666667
 40
0.1666666666666667
 40
0.1666666666666667
 40
0.3333333333333333
 40
0.3333333333333333
 40
0.3333333333333333
 40
0.3333333333333333
 40
0.5
 40
0.5
 40
0.5
 40
0.5
 40
0.6666666666666666
 40
0.6666666666666666
 40
0.6666666666666666
 40
0.6666666666666666
 40
0.8333333333333332
 40
0.8333333333333332
 40
0.8333333333333332
 40
0.8333333333333332
 40
1.0
 40
1.0
 40
1.0
 40
1.0
 10
-45.59363531729824
 20
133.3809585540048
 30
0.0
 10
-45.59363531729824
 20
133.3809585540048
 30
0.0
 10
-45.59363531729824
 20
133.8889585540048
 30
0.0
 10
-45.59363531729824
 20
133.8889585540048
 30
0.0
 10
-45.59363531729824
 20
133.8889585540048
 30
0.0
 10
-45.59363531729824
 20
134.9049585540048
 30
0.0
 10
-45.08563531729826
 20
135.2097585540048
 30
0.0
 10
-45.08563531729826
 20
135.2097585540048
 30
0.0
 10
-45.08563531729826
 20
135.2097585540048
 30
0.0
 10
-44.47603531729831
 20
135.7177585540048
 30
0.0
 10
-43.66323531729825
 20
135.3113585540048
 30
0.0
 10
-43.66323531729825
 20
135.3113585540048
 30
0.0
 10
-43.66323531729825
 20
135.3113585540048
 30
0.0
 10
-43.66323531729825
 20
135.3113585540048
 30
0.0
 10
9.879964682701713
 20
104.2217585540048
 30
0.0
 10
9.879964682701713
 20
104.2217585540048
 30
0.0
 10
9.879964682701713
 20
104.2217585540048
 30
0.0
 10
9.879964682701713
 20
104.2217585540048
 30
0.0
 10
12.1151646827017
 20
103.0025585540048
 30
0.0
 10
12.1151646827017
 20
100.3609585540048
 30
0.0
 10
12.1151646827017
 20
100.3609585540048
 30
0.0
 10
12.1151646827017
 20
100.3609585540048
 30
0.0
 10
12.01356468270171
 20
87.66095855400488
 30
0.0
 10
12.01356468270171
 20
87.66095855400488
 30
0.0
  0
SPLINE
  5
170
330
A
100
AcDbEntity
  8
Livello 1
370
    15
100
AcDbSpline
210
0.0
220
0.0
230
1.0
 70
     8
 71
     3
 72
    16
 73
    12
 74
     0
 42
0.0000000001
 43
0.0000000001
 40
0.0
 40
0.0
 40
0.0
 40
0.0
 40
0.3333333333333333
 40
0.3333333333333333
 40
0.3333333333333333
 40
0.3333333333333333
 40
0.6666666666666666
 40
0.6666666666666666
 40
0.6666666666666666
 40
0.6666666666666666
 40
1.0
 40
1.0
 40
1.0
 40
1.0
 10
9.27036468270171
 20
37.67375855400481
 30
0.0
 10
9.27036468270171
 20
37.67375855400481
 30
0.0
 10
9.98156468270173
 20
37.26735855400483
 30
0.0
 10
9.98156468270173
 20
37.26735855400483
 30
0.0
 10
9.98156468270173
 20
37.26735855400483
 30
0.0
 10
9.98156468270173
 20
37.26735855400483
 30
0.0
 10
11.70876468270171
 20
36.35295855400483
 30
0.0
 10
11.91196468270172
 20
38.68975855400485
 30
0.0
 10
11.91196468270172
 20
38.68975855400485
 30
0.0
 10
11.91196468270172
 20
38.68975855400485
 30
0.0
 10
12.01356468270171
 20
52.40575855400482
 30
0.0
 10
12.01356468270171
 20
52.40575855400482
 30
0.0
  0
SPLINE
  5
171
330
A
100
AcDbEntity
  8
Livello 1
370
    15
100
AcDbSpline
210
0.0
220
0.0
230
1.0
 70
     8
 71
     3
 72
    32
 73
    28
 74
     0
 42
0.0000000001
 43
0.0000000001
 40
0.0
 40
0.0
 40
0.0
 40
0.0
 40
0.1428571428571429
 40
0.1428571428571429
 40
0.1428571428571429
 40
0.1428571428571429
 40
0.2857142857142857
 40
0.2857142857142857
 40
0.2857142857142857
 40
0.2857142857142857
 40
0.4285714285714289
 40
0.4285714285714289
 40
0.4285714285714289
 40
0.4285714285714289
 40
0.5714285714285714
 40
0.5714285714285714
 40
0.5714285714285714
 40
0.5714285714285714
 40
0.7142857142857145
 40
0.7142857142857145
 40
0.7142857142857145
 40
0.7142857142857145
 40
0.8571428571428569
 40
0.8571428571428569
 40
0.8571428571428569
 40
0.8571428571428569
 40
1.0
 40
1.0
 40
1.0
 40
1.0
 10
4.495164682701697
 20
39.09615855400483
 30
0.0
 10
5.409564682701726
 20
38.58815855400481
 30
0.0
 10
5.917564682701707
 20
38.99455855400481
 30
0.0
 10
5.917564682701707
 20
38.99455855400481
 30
0.0
 10
5.917564682701707
 20
38.99455855400481
 30
0.0
 10
5.917564682701707
 20
38.99455855400481
 30
0.0
 10
6.42556468270169
 20
39.29935855400481
 30
0.0
 10
6.42556468270169
 20
39.29935855400481
 30
0.0
 10
6.42556468270169
 20
39.29935855400481
 30
0.0
 10
6.628764682701727
 20
39.40095855400482
 30
0.0
 10
6.730364682701717
 20
40.11215855400481
 30
0.0
 10
6.730364682701717
 20
40.11215855400481
 30
0.0
 10
6.730364682701717
 20
40.11215855400481
 30
0.0
 10
6.730364682701717
 20
40.11215855400481
 30
0.0
 10
6.831964682701709
 20
98.43055855400482
 30
0.0
 10
6.831964682701709
 20
98.43055855400482
 30
0.0
 10
6.831964682701709
 20
98.43055855400482
 30
0.0
 10
6.831964682701709
 20
99.95455855400486
 30
0.0
 10
5.612764682701707
 20
100.6657585540048
 30
0.0
 10
5.612764682701707
 20
100.6657585540048
 30
0.0
 10
5.612764682701707
 20
100.6657585540048
 30
0.0
 10
5.612764682701707
 20
100.6657585540048
 30
0.0
 10
-44.9840353172983
 20
130.0281585540048
 30
0.0
 10
-44.9840353172983
 20
130.0281585540048
 30
0.0
 10
-44.9840353172983
 20
130.0281585540048
 30
0.0
 10
-44.9840353172983
 20
130.0281585540048
 30
0.0
 10
-45.49203531729825
 20
130.3329585540048
 30
0.0
 10
-45.89843531729825
 20
130.0281585540048
 30
0.0
  0
SPLINE
  5
172
330
A
100
AcDbEntity
  8
Livello 1
370
    15
100
AcDbSpline
210
0.0
220
0.0
230
1.0
 70
     8
 71
     3
 72
    16
 73
    12
 74
     0
 42
0.0000000001
 43
0.0000000001
 40
0.0
 40
0.0
 40
0.0
 40
0.0
 40
0.3333333333333333
 40
0.3333333333333333
 40
0.3333333333333333
 40
0.3333333333333333
 40
0.6666666666666666
 40
0.6666666666666666
 40
0.6666666666666666
 40
0.6666666666666666
 40
1.0
 40
1.0
 40
1.0
 40
1.0
 10
11.70876468270171
 20
87.86415855400486
 30
0.0
 10
11.70876468270171
 20
87.86415855400486
 30
0.0
 10
11.70876468270171
 20
79.12655855400481
 30
0.0
 10
11.70876468270171
 20
79.12655855400481
 30
0.0
 10
11.70876468270171
 20
79.12655855400481
 30
0.0
 10
11.70876468270171
 20
79.12655855400481
 30
0.0
 10
11.09916468270174
 20
78.7201585540048
 30
0.0
 10
11.09916468270174
 20
78.7201585540048
 30
0.0
 10
11.09916468270174
 20
78.7201585540048
 30
0.0
 10
11.09916468270174
 20
78.7201585540048
 30
0.0
 10
10.99756468270169
 20
60.83855855400481
 30
0.0
 10
10.99756468270169
 20
60.83855855400481
 30
0.0
  0
SPLINE
  5
173
330
A
100
AcDbEntity
  8
Livello 1
370
    15
100
AcDbSpline
210
0.0
220
0.0
230
1.0
 70
     8
 71
     3
 72
    12
 73
     8
 74
     0
 42
0.0000000001
 43
0.0000000001
 40
0.0
 40
0.0
 40
0.0
 40
0.0
 40
0.5
 40
0.5
 40
0.5
 40
0.5
 40
1.0
 40
1.0
 40
1.0
 40
1.0
 10
12.62316468270171
 20
60.94015855400483
 30
0.0
 10
12.62316468270171
 20
60.94015855400483
 30
0.0
 10
12.62316468270171
 20
78.51695855400484
 30
0.0
 10
12.62316468270171
 20
78.51695855400484
 30
0.0
 10
12.62316468270171
 20
78.51695855400484
 30
0.0
 10
12.62316468270171
 20
78.51695855400484
 30
0.0
 10
12.01356468270171
 20
78.21215855400485
 30
0.0
 10
12.01356468270171
 20
78.21215855400485
 30
0.0
  0
SPLINE
  5
174
330
A
100
AcDbEntity
  8
Livello 1
370
    15
100
AcDbSpline
210
0.0
220
0.0
230
1.0
 70
     8
 71
     3
 72
    12
 73
     8
 74
     0
 42
0.0000000001
 43
0.0000000001
 40
0.0
 40
0.0
 40
0.0
 40
0.0
 40
0.5
 40
0.5
 40
0.5
 40
0.5
 40
1.0
 40
1.0
 40
1.0
 40
1.0
 10
11.09916468270174
 20
78.7201585540048
 30
0.0
 10
11.09916468270174
 20
78.7201585540048
 30
0.0
 10
12.01356468270171
 20
78.21215855400485
 30
0.0
 10
12.01356468270171
 20
78.21215855400485
 30
0.0
 10
12.01356468270171
 20
78.21215855400485
 30
0.0
 10
12.01356468270171
 20
78.21215855400485
 30
0.0
 10
12.01356468270171
 20
60.53375855400481
 30
0.0
 10
12.01356468270171
 20
60.53375855400481
 30
0.0
  0
SPLINE
  5
175
330
A
100
AcDbEntity
  8
Livello 1
370
    15
100
AcDbSpline
210
0.0
220
0.0
230
1.0
 70
     8
 71
     3
 72
    36
 73
    32
 74
     0
 42
0.0000000001
 43
0.0000000001
 40
0.0
 40
0.0
 40
0.0
 40
0.0
 40
0.125
 40
0.125
 40
0.125
 40
0.125
 40
0.25
 40
0.25
 40
0.25
 40
0.25
 40
0.375
 40
0.375
 40
0.375
 40
0.375
 40
0.5
 40
0.5
 40
0.5
 40
0.5
 40
0.625
 40
0.625
 40
0.625
 40
0.625
 40
0.75
 40
0.75
 40
0.75
 40
0.75
 40
0.875
 40
0.875
 40
0.875
 40
0.875
 40
1.0
 40
1.0
 40
1.0
 40
1.0
 10
-46.91443531729825
 20
69.67775855400484
 30
0.0
 10
-46.91443531729825
 20
69.67775855400484
 30
0.0
 10
-46.91443531729825
 20
69.06815855400484
 30
0.0
 10
-46.30483531729827
 20
68.66175855400483
 30
0.0
 10
-46.30483531729827
 20
68.66175855400483
 30
0.0
 10
-46.30483531729827
 20
68.66175855400483
 30
0.0
 10
7.035164682701719
 20
37.67375855400481
 30
0.0
 10
7.035164682701719
 20
37.67375855400481
 30
0.0
 10
7.035164682701719
 20
37.67375855400481
 30
0.0
 10
7.543164682701699
 20
37.57215855400483
 30
0.0
 10
7.543164682701699
 20
38.08015855400481
 30
0.0
 10
7.543164682701699
 20
38.08015855400481
 30
0.0
 10
7.543164682701699
 20
38.08015855400481
 30
0.0
 10
7.543164682701699
 20
38.08015855400481
 30
0.0
 10
7.74636468270171
 20
99.85295855400485
 30
0.0
 10
7.74636468270171
 20
99.85295855400485
 30
0.0
 10
7.74636468270171
 20
99.85295855400485
 30
0.0
 10
7.644764682701691
 20
100.3609585540048
 30
0.0
 10
7.136764682701707
 20
100.6657585540048
 30
0.0
 10
7.136764682701707
 20
100.6657585540048
 30
0.0
 10
7.136764682701707
 20
100.6657585540048
 30
0.0
 10
7.136764682701707
 20
100.6657585540048
 30
0.0
 10
-46.20323531729829
 20
131.7553585540048
 30
0.0
 10
-46.20323531729829
 20
131.7553585540048
 30
0.0
 10
-46.20323531729829
 20
131.7553585540048
 30
0.0
 10
-46.71123531729826
 20
131.9585585540048
 30
0.0
 10
-46.71123531729826
 20
131.3489585540048
 30
0.0
 10
-46.71123531729826
 20
131.3489585540048
 30
0.0
 10
-46.71123531729826
 20
131.3489585540048
 30
0.0
 10
-46.71123531729826
 20
131.3489585540048
 30
0.0
 10
-46.71123531729826
 20
129.1137585540048
 30
0.0
 10
-46.71123531729826
 20
129.1137585540048
 30
0.0
  0
SPLINE
  5
176
330
A
100
AcDbEntity
  8
Livello 1
370
    15
100
AcDbSpline
210
0.0
220
0.0
230
1.0
 70
     8
 71
     3
 72
    40
 73
    36
 74
     0
 42
0.0000000001
 43
0.0000000001
 40
0.0
 40
0.0
 40
0.0
 40
0.0
 40
0.1111111111111111
 40
0.1111111111111111
 40
0.1111111111111111
 40
0.1111111111111111
 40
0.2222222222222222
 40
0.2222222222222222
 40
0.2222222222222222
 40
0.2222222222222222
 40
0.3333333333333333
 40
0.3333333333333333
 40
0.3333333333333333
 40
0.3333333333333333
 40
0.4444444444444445
 40
0.4444444444444445
 40
0.4444444444444445
 40
0.4444444444444445
 40
0.5555555555555556
 40
0.5555555555555556
 40
0.5555555555555556
 40
0.5555555555555556
 40
0.6666666666666669
 40
0.6666666666666669
 40
0.6666666666666669
 40
0.6666666666666669
 40
0.7777777777777779
 40
0.7777777777777779
 40
0.7777777777777779
 40
0.7777777777777779
 40
0.8888888888888891
 40
0.8888888888888891
 40
0.8888888888888891
 40
0.8888888888888891
 40
1.0
 40
1.0
 40
1.0
 40
1.0
 10
4.495164682701697
 20
39.09615855400483
 30
0.0
 10
4.495164682701697
 20
39.09615855400483
 30
0.0
 10
-45.89843531729825
 20
68.35695855400482
 30
0.0
 10
-45.89843531729825
 20
68.35695855400482
 30
0.0
 10
-45.89843531729825
 20
68.35695855400482
 30
0.0
 10
-47.01603531729829
 20
69.06815855400484
 30
0.0
 10
-47.01603531729829
 20
70.18575855400484
 30
0.0
 10
-47.01603531729829
 20
70.18575855400484
 30
0.0
 10
-47.01603531729829
 20
70.18575855400484
 30
0.0
 10
-47.01603531729829
 20
70.18575855400484
 30
0.0
 10
-46.81283531729831
 20
128.5041585540048
 30
0.0
 10
-46.81283531729831
 20
128.5041585540048
 30
0.0
 10
-46.81283531729831
 20
128.5041585540048
 30
0.0
 10
-46.81283531729831
 20
129.5201585540048
 30
0.0
 10
-46.20323531729829
 20
129.8249585540048
 30
0.0
 10
-46.20323531729829
 20
129.8249585540048
 30
0.0
 10
-46.20323531729829
 20
129.8249585540048
 30
0.0
 10
-46.20323531729829
 20
129.8249585540048
 30
0.0
 10
-45.89843531729825
 20
130.1297585540048
 30
0.0
 10
-45.28883531729827
 20
129.7233585540048
 30
0.0
 10
-45.28883531729827
 20
129.7233585540048
 30
0.0
 10
-45.28883531729827
 20
129.7233585540048
 30
0.0
 10
5.206364682701718
 20
100.4625585540048
 30
0.0
 10
5.206364682701718
 20
100.4625585540048
 30
0.0
 10
5.206364682701718
 20
100.4625585540048
 30
0.0
 10
5.206364682701718
 20
100.4625585540048
 30
0.0
 10
6.42556468270169
 20
99.75135855400484
 30
0.0
 10
6.527164682701737
 20
98.12575855400485
 30
0.0
 10
6.527164682701737
 20
98.12575855400485
 30
0.0
 10
6.527164682701737
 20
98.12575855400485
 30
0.0
 10
6.323964682701727
 20
39.80735855400485
 30
0.0
 10
6.323964682701727
 20
39.80735855400485
 30
0.0
 10
6.323964682701727
 20
39.80735855400485
 30
0.0
 10
6.323964682701727
 20
39.80735855400485
 30
0.0
 10
6.323964682701727
 20
39.29935855400481
 30
0.0
 10
6.019164682701699
 20
38.99455855400481
 30
0.0
  0
SPLINE
  5
177
330
A
100
AcDbEntity
  8
Livello 1
370
    15
100
AcDbSpline
210
0.0
220
0.0
230
1.0
 70
    11
 71
     3
 72
    36
 73
    32
 74
     0
 42
0.0000000001
 43
0.0000000001
 40
0.0
 40
0.0
 40
0.0
 40
0.0
 40
0.125
 40
0.125
 40
0.125
 40
0.125
 40
0.25
 40
0.25
 40
0.25
 40
0.25
 40
0.375
 40
0.375
 40
0.375
 40
0.375
 40
0.5
 40
0.5
 40
0.5
 40
0.5
 40
0.625
 40
0.625
 40
0.625
 40
0.625
 40
0.75
 40
0.75
 40
0.75
 40
0.75
 40
0.875
 40
0.875
 40
0.875
 40
0.875
 40
1.0
 40
1.0
 40
1.0
 40
1.0
 10
-46.71123531729826
 20
69.88095855400482
 30
0.0
 10
-46.71123531729826
 20
69.88095855400482
 30
0.0
 10
-46.71123531729826
 20
69.16975855400483
 30
0.0
 10
-46.10163531729829
 20
68.76335855400481
 30
0.0
 10
-46.10163531729829
 20
68.76335855400481
 30
0.0
 10
-46.10163531729829
 20
68.76335855400481
 30
0.0
 10
4.393564682701708
 20
39.50255855400485
 30
0.0
 10
4.393564682701708
 20
39.50255855400485
 30
0.0
 10
4.393564682701708
 20
39.50255855400485
 30
0.0
 10
4.393564682701708
 20
39.50255855400485
 30
0.0
 10
4.901564682701688
 20
39.09615855400483
 30
0.0
 10
5.003164682701735
 20
39.80735855400485
 30
0.0
 10
5.003164682701735
 20
39.80735855400485
 30
0.0
 10
5.003164682701735
 20
39.80735855400485
 30
0.0
 10
5.206364682701718
 20
98.22735855400484
 30
0.0
 10
5.206364682701718
 20
98.22735855400484
 30
0.0
 10
5.206364682701718
 20
98.22735855400484
 30
0.0
 10
5.104764682701726
 20
99.04015855400482
 30
0.0
 10
4.596764682701746
 20
99.24335855400485
 30
0.0
 10
4.596764682701746
 20
99.24335855400485
 30
0.0
 10
4.596764682701746
 20
99.24335855400485
 30
0.0
 10
4.596764682701746
 20
99.24335855400485
 30
0.0
 10
-45.89843531729825
 20
128.6057585540048
 30
0.0
 10
-45.89843531729825
 20
128.6057585540048
 30
0.0
 10
-45.89843531729825
 20
128.6057585540048
 30
0.0
 10
-45.89843531729825
 20
128.6057585540048
 30
0.0
 10
-46.50803531729827
 20
128.9105585540048
 30
0.0
 10
-46.50803531729827
 20
128.3009585540048
 30
0.0
 10
-46.50803531729827
 20
128.3009585540048
 30
0.0
 10
-46.50803531729827
 20
128.3009585540048
 30
0.0
 10
-46.71123531729826
 20
69.88095855400482
 30
0.0
 10
-46.71123531729826
 20
69.88095855400482
 30
0.0
  0
SPLINE
  5
190
330
A
100
AcDbEntity
  8
Livello 1
370
    15
100
AcDbSpline
210
0.0
220
0.0
230
1.0
 70
    24
 71
     3
 72
     8
 73
     4
 74
     0
 42
0.0000000001
 43
0.0000000001
 40
0.0
 40
0.0
 40
0.0
 40
0.0
 40
1.0
 40
1.0
 40
1.0
 40
1.0
 10
-13.8944353172983
 20
127.8945585540048
 30
0.0
 10
-13.8944353172983
 20
127.8945585540048
 30
0.0
 10
-15.52003531729829
 20
128.8089585540048
 30
0.0
 10
-15.52003531729829
 20
128.8089585540048
 30
0.0
  0
SPLINE
  5
191
330
A
100
AcDbEntity
  8
Livello 1
370
    15
100
AcDbSpline
210
0.0
220
0.0
230
1.0
 70
     8
 71
     3
 72
    16
 73
    12
 74
     0
 42
0.0000000001
 43
0.0000000001
 40
0.0
 40
0.0
 40
0.0
 40
0.0
 40
0.3333333333333333
 40
0.3333333333333333
 40
0.3333333333333333
 40
0.3333333333333333
 40
0.6666666666666666
 40
0.6666666666666666
 40
0.6666666666666666
 40
0.6666666666666666
 40
1.0
 40
1.0
 40
1.0
 40
1.0
 10
18.61756468270171
 20
93.04575855400484
 30
0.0
 10
18.61756468270171
 20
93.04575855400484
 30
0.0
 10
18.61756468270171
 20
107.5745585540049
 30
0.0
 10
18.61756468270171
 20
107.5745585540049
 30
0.0
 10
18.61756468270171
 20
107.5745585540049
 30
0.0
 10
18.51596468270173
 20
109.2001585540048
 30
0.0
 10
17.19516468270171
 20
109.9113585540048
 30
0.0
 10
17.19516468270171
 20
109.9113585540048
 30
0.0
 10
17.19516468270171
 20
109.9113585540048
 30
0.0
 10
17.19516468270171
 20
109.9113585540048
 30
0.0
 10
-0.3816353172982758
 20
119.9697585540048
 30
0.0
 10
-0.3816353172982758
 20
119.9697585540048
 30
0.0
  0
SPLINE
  5
192
330
A
100
AcDbEntity
  8
Livello 1
370
    15
100
AcDbSpline
210
0.0
220
0.0
230
1.0
 70
    24
 71
     3
 72
     8
 73
     4
 74
     0
 42
0.0000000001
 43
0.0000000001
 40
0.0
 40
0.0
 40
0.0
 40
0.0
 40
1.0
 40
1.0
 40
1.0
 40
1.0
 10
-17.45043531729828
 20
129.9265585540049
 30
0.0
 10
-17.45043531729828
 20
129.9265585540049
 30
0.0
 10
-15.52003531729829
 20
128.8089585540048
 30
0.0
 10
-15.52003531729829
 20
128.8089585540048
 30
0.0
  0
SPLINE
  5
193
330
A
100
AcDbEntity
  8
Livello 1
370
    15
100
AcDbSpline
210
0.0
220
0.0
230
1.0
 70
    24
 71
     3
 72
     8
 73
     4
 74
     0
 42
0.0000000001
 43
0.0000000001
 40
0.0
 40
0.0
 40
0.0
 40
0.0
 40
1.0
 40
1.0
 40
1.0
 40
1.0
 10
-23.03843531729831
 20
133.1777585540048
 30
0.0
 10
-23.03843531729831
 20
133.1777585540048
 30
0.0
 10
-17.45043531729828
 20
129.9265585540049
 30
0.0
 10
-17.45043531729828
 20
129.9265585540049
 30
0.0
  0
SPLINE
  5
194
330
A
100
AcDbEntity
  8
Livello 1
370
    15
100
AcDbSpline
210
0.0
220
0.0
230
1.0
 70
    24
 71
     3
 72
     8
 73
     4
 74
     0
 42
0.0000000001
 43
0.0000000001
 40
0.0
 40
0.0
 40
0.0
 40
0.0
 40
1.0
 40
1.0
 40
1.0
 40
1.0
 10
-29.0328353172983
 20
136.6321585540049
 30
0.0
 10
-29.0328353172983
 20
136.6321585540049
 30
0.0
 10
-23.03843531729831
 20
133.1777585540048
 30
0.0
 10
-23.03843531729831
 20
133.1777585540048
 30
0.0
  0
SPLINE
  5
195
330
A
100
AcDbEntity
  8
Livello 1
370
    15
100
AcDbSpline
210
0.0
220
0.0
230
1.0
 70
     8
 71
     3
 72
    12
 73
     8
 74
     0
 42
0.0000000001
 43
0.0000000001
 40
0.0
 40
0.0
 40
0.0
 40
0.0
 40
0.5
 40
0.5
 40
0.5
 40
0.5
 40
1.0
 40
1.0
 40
1.0
 40
1.0
 10
-36.14483531729829
 20
140.1881585540048
 30
0.0
 10
-35.63683531729829
 20
140.4929585540048
 30
0.0
 10
-35.02723531729829
 20
140.0865585540049
 30
0.0
 10
-35.02723531729829
 20
140.0865585540049
 30
0.0
 10
-35.02723531729829
 20
140.0865585540049
 30
0.0
 10
-35.02723531729829
 20
140.0865585540049
 30
0.0
 10
-29.0328353172983
 20
136.6321585540049
 30
0.0
 10
-29.0328353172983
 20
136.6321585540049
 30
0.0
  0
SPLINE
  5
196
330
A
100
AcDbEntity
  8
Livello 1
370
    15
100
AcDbSpline
210
0.0
220
0.0
230
1.0
 70
    24
 71
     3
 72
     8
 73
     4
 74
     0
 42
0.0000000001
 43
0.0000000001
 40
0.0
 40
0.0
 40
0.0
 40
0.0
 40
1.0
 40
1.0
 40
1.0
 40
1.0
 10
-23.03843531729831
 20
133.1777585540048
 30
0.0
 10
-23.03843531729831
 20
133.1777585540048
 30
0.0
 10
-29.0328353172983
 20
136.6321585540049
 30
0.0
 10
-29.0328353172983
 20
136.6321585540049
 30
0.0
  0
SPLINE
  5
197
330
A
100
AcDbEntity
  8
Livello 1
370
    15
100
AcDbSpline
210
0.0
220
0.0
230
1.0
 70
    24
 71
     3
 72
     8
 73
     4
 74
     0
 42
0.0000000001
 43
0.0000000001
 40
0.0
 40
0.0
 40
0.0
 40
0.0
 40
1.0
 40
1.0
 40
1.0
 40
1.0
 10
-17.45043531729828
 20
129.9265585540049
 30
0.0
 10
-17.45043531729828
 20
129.9265585540049
 30
0.0
 10
-23.03843531729831
 20
133.1777585540048
 30
0.0
 10
-23.03843531729831
 20
133.1777585540048
 30
0.0
  0
SPLINE
  5
198
330
A
100
AcDbEntity
  8
Livello 1
370
    15
100
AcDbSpline
210
0.0
220
0.0
230
1.0
 70
    24
 71
     3
 72
     8
 73
     4
 74
     0
 42
0.0000000001
 43
0.0000000001
 40
0.0
 40
0.0
 40
0.0
 40
0.0
 40
1.0
 40
1.0
 40
1.0
 40
1.0
 10
-15.52003531729829
 20
128.8089585540048
 30
0.0
 10
-15.52003531729829
 20
128.8089585540048
 30
0.0
 10
-17.45043531729828
 20
129.9265585540049
 30
0.0
 10
-17.45043531729828
 20
129.9265585540049
 30
0.0
  0
SPLINE
  5
199
330
A
100
AcDbEntity
  8
Livello 1
370
    15
100
AcDbSpline
210
0.0
220
0.0
230
1.0
 70
    24
 71
     3
 72
     8
 73
     4
 74
     0
 42
0.0000000001
 43
0.0000000001
 40
0.0
 40
0.0
 40
0.0
 40
0.0
 40
1.0
 40
1.0
 40
1.0
 40
1.0
 10
18.61756468270171
 20
83.08895855400484
 30
0.0
 10
18.61756468270171
 20
83.08895855400484
 30
0.0
 10
18.61756468270171
 20
86.34015855400486
 30
0.0
 10
18.61756468270171
 20
86.34015855400486
 30
0.0
  0
SPLINE
  5
19A
330
A
100
AcDbEntity
  8
Livello 1
370
    15
100
AcDbSpline
210
0.0
220
0.0
230
1.0
 70
    24
 71
     3
 72
     8
 73
     4
 74
     0
 42
0.0000000001
 43
0.0000000001
 40
0.0
 40
0.0
 40
0.0
 40
0.0
 40
1.0
 40
1.0
 40
1.0
 40
1.0
 10
18.61756468270171
 20
72.01455855400483
 30
0.0
 10
18.61756468270171
 20
72.01455855400483
 30
0.0
 10
18.61756468270171
 20
78.21215855400485
 30
0.0
 10
18.61756468270171
 20
78.21215855400485
 30
0.0
  0
SPLINE
  5
19B
330
A
100
AcDbEntity
  8
Livello 1
370
    15
100
AcDbSpline
210
0.0
220
0.0
230
1.0
 70
     8
 71
     3
 72
    12
 73
     8
 74
     0
 42
0.0000000001
 43
0.0000000001
 40
0.0
 40
0.0
 40
0.0
 40
0.0
 40
0.5
 40
0.5
 40
0.5
 40
0.5
 40
1.0
 40
1.0
 40
1.0
 40
1.0
 10
-0.686435317298276
 20
119.7665585540048
 30
0.0
 10
-0.686435317298276
 20
119.7665585540048
 30
0.0
 10
16.89036468270171
 20
109.7081585540048
 30
0.0
 10
16.89036468270171
 20
109.7081585540048
 30
0.0
 10
16.89036468270171
 20
109.7081585540048
 30
0.0
 10
16.89036468270171
 20
109.7081585540048
 30
0.0
 10
18.21116468270171
 20
108.9969585540048
 30
0.0
 10
18.3127646827017
 20
107.3713585540048
 30
0.0
  0
SPLINE
  5
19C
330
A
100
AcDbEntity
  8
Livello 1
370
    15
100
AcDbSpline
210
0.0
220
0.0
230
1.0
 70
    24
 71
     3
 72
     8
 73
     4
 74
     0
 42
0.0000000001
 43
0.0000000001
 40
0.0
 40
0.0
 40
0.0
 40
0.0
 40
1.0
 40
1.0
 40
1.0
 40
1.0
 10
-10.03363531729829
 20
125.3545585540048
 30
0.0
 10
-10.03363531729829
 20
125.3545585540048
 30
0.0
 10
-4.852035317298287
 20
122.3065585540048
 30
0.0
 10
-4.852035317298287
 20
122.3065585540048
 30
0.0
  0
SPLINE
  5
19D
330
A
100
AcDbEntity
  8
Livello 1
370
    15
100
AcDbSpline
210
0.0
220
0.0
230
1.0
 70
    24
 71
     3
 72
     8
 73
     4
 74
     0
 42
0.0000000001
 43
0.0000000001
 40
0.0
 40
0.0
 40
0.0
 40
0.0
 40
1.0
 40
1.0
 40
1.0
 40
1.0
 10
-15.52003531729829
 20
128.4025585540048
 30
0.0
 10
-15.52003531729829
 20
128.4025585540048
 30
0.0
 10
-14.30083531729829
 20
127.7929585540048
 30
0.0
 10
-14.30083531729829
 20
127.7929585540048
 30
0.0
  0
SPLINE
  5
19E
330
A
100
AcDbEntity
  8
Livello 1
370
    15
100
AcDbSpline
210
0.0
220
0.0
230
1.0
 70
    24
 71
     3
 72
     8
 73
     4
 74
     0
 42
0.0000000001
 43
0.0000000001
 40
0.0
 40
0.0
 40
0.0
 40
0.0
 40
1.0
 40
1.0
 40
1.0
 40
1.0
 10
-17.45043531729828
 20
129.6217585540048
 30
0.0
 10
-17.45043531729828
 20
129.6217585540048
 30
0.0
 10
-15.52003531729829
 20
128.4025585540048
 30
0.0
 10
-15.52003531729829
 20
128.4025585540048
 30
0.0
  0
SPLINE
  5
19F
330
A
100
AcDbEntity
  8
Livello 1
370
    15
100
AcDbSpline
210
0.0
220
0.0
230
1.0
 70
    24
 71
     3
 72
     8
 73
     4
 74
     0
 42
0.0000000001
 43
0.0000000001
 40
0.0
 40
0.0
 40
0.0
 40
0.0
 40
1.0
 40
1.0
 40
1.0
 40
1.0
 10
-23.03843531729831
 20
132.7713585540048
 30
0.0
 10
-23.03843531729831
 20
132.7713585540048
 30
0.0
 10
-17.45043531729828
 20
129.6217585540048
 30
0.0
 10
-17.45043531729828
 20
129.6217585540048
 30
0.0
  0
SPLINE
  5
1A0
330
A
100
AcDbEntity
  8
Livello 1
370
    15
100
AcDbSpline
210
0.0
220
0.0
230
1.0
 70
    24
 71
     3
 72
     8
 73
     4
 74
     0
 42
0.0000000001
 43
0.0000000001
 40
0.0
 40
0.0
 40
0.0
 40
0.0
 40
1.0
 40
1.0
 40
1.0
 40
1.0
 10
-29.0328353172983
 20
136.3273585540048
 30
0.0
 10
-29.0328353172983
 20
136.3273585540048
 30
0.0
 10
-23.03843531729831
 20
132.7713585540048
 30
0.0
 10
-23.03843531729831
 20
132.7713585540048
 30
0.0
  0
SPLINE
  5
1A1
330
A
100
AcDbEntity
  8
Livello 1
370
    15
100
AcDbSpline
210
0.0
220
0.0
230
1.0
 70
    24
 71
     3
 72
     8
 73
     4
 74
     0
 42
0.0000000001
 43
0.0000000001
 40
0.0
 40
0.0
 40
0.0
 40
0.0
 40
1.0
 40
1.0
 40
1.0
 40
1.0
 10
-35.4336353172983
 20
139.9849585540048
 30
0.0
 10
-35.4336353172983
 20
139.9849585540048
 30
0.0
 10
-29.0328353172983
 20
136.3273585540048
 30
0.0
 10
-29.0328353172983
 20
136.3273585540048
 30
0.0
  0
SPLINE
  5
1A2
330
A
100
AcDbEntity
  8
Livello 1
370
    15
100
AcDbSpline
210
0.0
220
0.0
230
1.0
 70
    24
 71
     3
 72
     8
 73
     4
 74
     0
 42
0.0000000001
 43
0.0000000001
 40
0.0
 40
0.0
 40
0.0
 40
0.0
 40
1.0
 40
1.0
 40
1.0
 40
1.0
 10
18.3127646827017
 20
107.3713585540048
 30
0.0
 10
18.3127646827017
 20
107.3713585540048
 30
0.0
 10
18.3127646827017
 20
92.74095855400483
 30
0.0
 10
18.3127646827017
 20
92.74095855400483
 30
0.0
  0
SPLINE
  5
1A3
330
A
100
AcDbEntity
  8
Livello 1
370
    15
100
AcDbSpline
210
0.0
220
0.0
230
1.0
 70
    24
 71
     3
 72
     8
 73
     4
 74
     0
 42
0.0000000001
 43
0.0000000001
 40
0.0
 40
0.0
 40
0.0
 40
0.0
 40
1.0
 40
1.0
 40
1.0
 40
1.0
 10
18.3127646827017
 20
78.00895855400483
 30
0.0
 10
18.3127646827017
 20
78.00895855400483
 30
0.0
 10
18.3127646827017
 20
71.81135855400488
 30
0.0
 10
18.3127646827017
 20
71.81135855400488
 30
0.0
  0
SPLINE
  5
1A4
330
A
100
AcDbEntity
  8
Livello 1
370
    15
100
AcDbSpline
210
0.0
220
0.0
230
1.0
 70
    24
 71
     3
 72
     8
 73
     4
 74
     0
 42
0.0000000001
 43
0.0000000001
 40
0.0
 40
0.0
 40
0.0
 40
0.0
 40
1.0
 40
1.0
 40
1.0
 40
1.0
 10
18.3127646827017
 20
85.93375855400484
 30
0.0
 10
18.3127646827017
 20
85.93375855400484
 30
0.0
 10
18.3127646827017
 20
82.98735855400483
 30
0.0
 10
18.3127646827017
 20
82.98735855400483
 30
0.0
  0
SPLINE
  5
1A5
330
A
100
AcDbEntity
  8
Livello 1
370
    15
100
AcDbSpline
210
0.0
220
0.0
230
1.0
 70
    24
 71
     3
 72
     8
 73
     4
 74
     0
 42
0.0000000001
 43
0.0000000001
 40
0.0
 40
0.0
 40
0.0
 40
0.0
 40
1.0
 40
1.0
 40
1.0
 40
1.0
 10
-23.03843531729831
 20
132.7713585540048
 30
0.0
 10
-23.03843531729831
 20
132.7713585540048
 30
0.0
 10
-17.45043531729828
 20
129.6217585540048
 30
0.0
 10
-17.45043531729828
 20
129.6217585540048
 30
0.0
  0
SPLINE
  5
1A6
330
A
100
AcDbEntity
  8
Livello 1
370
    15
100
AcDbSpline
210
0.0
220
0.0
230
1.0
 70
    24
 71
     3
 72
     8
 73
     4
 74
     0
 42
0.0000000001
 43
0.0000000001
 40
0.0
 40
0.0
 40
0.0
 40
0.0
 40
1.0
 40
1.0
 40
1.0
 40
1.0
 10
-29.0328353172983
 20
136.3273585540048
 30
0.0
 10
-29.0328353172983
 20
136.3273585540048
 30
0.0
 10
-23.03843531729831
 20
132.7713585540048
 30
0.0
 10
-23.03843531729831
 20
132.7713585540048
 30
0.0
  0
SPLINE
  5
1A7
330
A
100
AcDbEntity
  8
Livello 1
370
    15
100
AcDbSpline
210
0.0
220
0.0
230
1.0
 70
     8
 71
     3
 72
    12
 73
     8
 74
     0
 42
0.0000000001
 43
0.0000000001
 40
0.0
 40
0.0
 40
0.0
 40
0.0
 40
0.5
 40
0.5
 40
0.5
 40
0.5
 40
1.0
 40
1.0
 40
1.0
 40
1.0
 10
-35.4336353172983
 20
139.9849585540048
 30
0.0
 10
-36.0432353172983
 20
140.2897585540048
 30
0.0
 10
-36.44963531729831
 20
140.0865585540049
 30
0.0
 10
-36.44963531729831
 20
140.0865585540049
 30
0.0
 10
-36.44963531729831
 20
140.0865585540049
 30
0.0
 10
-36.44963531729831
 20
140.0865585540049
 30
0.0
 10
-38.7864353172983
 20
138.4609585540048
 30
0.0
 10
-38.7864353172983
 20
138.4609585540048
 30
0.0
  0
SPLINE
  5
1AA
330
A
100
AcDbEntity
  8
Livello 1
370
    15
100
AcDbSpline
210
0.0
220
0.0
230
1.0
 70
    27
 71
     3
 72
     8
 73
     4
 74
     0
 42
0.0000000001
 43
0.0000000001
 40
0.0
 40
0.0
 40
0.0
 40
0.0
 40
1.0
 40
1.0
 40
1.0
 40
1.0
 10
24.53045635992302
 20
109.9947727685062
 30
0.0
 10
24.53045635992302
 20
109.9947727685062
 30
0.0
 10
24.53045635992302
 20
109.9947727685062
 30
0.0
 10
24.53045635992302
 20
109.9947727685062
 30
0.0
  0
SPLINE
  5
1AC
330
A
100
AcDbEntity
  8
Livello 1
370
    15
100
AcDbSpline
210
0.0
220
0.0
230
1.0
 70
    27
 71
     3
 72
     8
 73
     4
 74
     0
 42
0.0000000001
 43
0.0000000001
 40
0.0
 40
0.0
 40
0.0
 40
0.0
 40
1.0
 40
1.0
 40
1.0
 40
1.0
 10
24.53045635992302
 20
109.9947727685062
 30
0.0
 10
24.53045635992302
 20
109.9947727685062
 30
0.0
 10
24.53045635992302
 20
109.9947727685062
 30
0.0
 10
24.53045635992302
 20
109.9947727685062
 30
0.0
  0
SPLINE
  5
1AF
330
A
100
AcDbEntity
  8
Livello 1
370
    15
100
AcDbSpline
210
0.0
220
0.0
230
1.0
 70
    27
 71
     3
 72
     8
 73
     4
 74
     0
 42
0.0000000001
 43
0.0000000001
 40
0.0
 40
0.0
 40
0.0
 40
0.0
 40
1.0
 40
1.0
 40
1.0
 40
1.0
 10
24.53045635992302
 20
109.9947727685062
 30
0.0
 10
24.53045635992302
 20
109.9947727685062
 30
0.0
 10
24.53045635992302
 20
109.9947727685062
 30
0.0
 10
24.53045635992302
 20
109.9947727685062
 30
0.0
  0
SPLINE
  5
1B1
330
A
100
AcDbEntity
  8
Livello 1
370
    15
100
AcDbSpline
210
0.0
220
0.0
230
1.0
 70
    27
 71
     3
 72
     8
 73
     4
 74
     0
 42
0.0000000001
 43
0.0000000001
 40
0.0
 40
0.0
 40
0.0
 40
0.0
 40
1.0
 40
1.0
 40
1.0
 40
1.0
 10
24.53045635992302
 20
109.1819727685063
 30
0.0
 10
24.53045635992302
 20
109.1819727685063
 30
0.0
 10
24.53045635992302
 20
109.1819727685063
 30
0.0
 10
24.53045635992302
 20
109.1819727685063
 30
0.0
  0
SPLINE
  5
1B3
330
A
100
AcDbEntity
  8
Livello 1
370
    15
100
AcDbSpline
210
0.0
220
0.0
230
1.0
 70
    27
 71
     3
 72
     8
 73
     4
 74
     0
 42
0.0000000001
 43
0.0000000001
 40
0.0
 40
0.0
 40
0.0
 40
0.0
 40
1.0
 40
1.0
 40
1.0
 40
1.0
 10
24.53045635992302
 20
109.1819727685063
 30
0.0
 10
24.53045635992302
 20
109.1819727685063
 30
0.0
 10
24.53045635992302
 20
109.1819727685063
 30
0.0
 10
24.53045635992302
 20
109.1819727685063
 30
0.0
  0
SPLINE
  5
1B5
330
A
100
AcDbEntity
  8
Livello 1
370
    15
100
AcDbSpline
210
0.0
220
0.0
230
1.0
 70
     8
 71
     3
 72
    12
 73
     8
 74
     0
 42
0.0000000001
 43
0.0000000001
 40
0.0
 40
0.0
 40
0.0
 40
0.0
 40
0.5
 40
0.5
 40
0.5
 40
0.5
 40
1.0
 40
1.0
 40
1.0
 40
1.0
 10
-22.20554364007699
 20
139.2555727685063
 30
0.0
 10
-22.20554364007699
 20
139.2555727685063
 30
0.0
 10
23.412856359923
 20
112.9411727685062
 30
0.0
 10
23.412856359923
 20
112.9411727685062
 30
0.0
 10
23.412856359923
 20
112.9411727685062
 30
0.0
 10
23.412856359923
 20
112.9411727685062
 30
0.0
 10
24.124056359923
 20
112.5347727685062
 30
0.0
 10
24.53045635992302
 20
111.0107727685063
 30
0.0
  0
SPLINE
  5
1B7
330
A
100
AcDbEntity
  8
Livello 1
370
    15
100
AcDbSpline
210
0.0
220
0.0
230
1.0
 70
     8
 71
     3
 72
    16
 73
    12
 74
     0
 42
0.0000000001
 43
0.0000000001
 40
0.0
 40
0.0
 40
0.0
 40
0.0
 40
0.3333333333333333
 40
0.3333333333333333
 40
0.3333333333333333
 40
0.3333333333333333
 40
0.6666666666666666
 40
0.6666666666666666
 40
0.6666666666666666
 40
0.6666666666666666
 40
1.0
 40
1.0
 40
1.0
 40
1.0
 10
-35.63683531729829
 20
140.6961585540049
 30
0.0
 10
-35.63683531729829
 20
140.6961585540049
 30
0.0
 10
-30.25203531729825
 20
143.3377585540048
 30
0.0
 10
-30.25203531729825
 20
143.3377585540048
 30
0.0
 10
-30.25203531729825
 20
143.3377585540048
 30
0.0
 10
-30.25203531729825
 20
143.3377585540048
 30
0.0
 10
-29.84563531729826
 20
143.5409585540048
 30
0.0
 10
-29.33763531729829
 20
143.2361585540048
 30
0.0
 10
-29.33763531729829
 20
143.2361585540048
 30
0.0
 10
-29.33763531729829
 20
143.2361585540048
 30
0.0
 10
-4.147967339723379
 20
128.9035336699109
 30
0.0
 10
-4.147967339723379
 20
128.9035336699109
 30
0.0
  0
SPLINE
  5
1B8
330
A
100
AcDbEntity
  8
Livello 1
370
    15
100
AcDbSpline
210
0.0
220
0.0
230
1.0
 70
    24
 71
     3
 72
     8
 73
     4
 74
     0
 42
0.0000000001
 43
0.0000000001
 40
0.1831063893859457
 40
0.1831063893859457
 40
0.1831063893859457
 40
0.1831063893859457
 40
1.0
 40
1.0
 40
1.0
 40
1.0
 10
23.95904191546395
 20
90.1629702126282
 30
0.0
 10
23.95904191546395
 20
79.3977463432537
 30
0.0
 10
23.95904191546395
 20
50.00165616454369
 30
0.0
 10
23.95904191546395
 20
50.00165616454369
 30
0.0
  0
SPLINE
  5
1BB
330
A
100
AcDbEntity
  8
Livello 1
370
    15
100
AcDbSpline
210
0.0
220
0.0
230
1.0
 70
    24
 71
     3
 72
     8
 73
     4
 74
     0
 42
0.0000000001
 43
0.0000000001
 40
0.1693218296619231
 40
0.1693218296619231
 40
0.1693218296619231
 40
0.1693218296619231
 40
0.2293636945672309
 40
0.2293636945672309
 40
0.2293636945672309
 40
0.2293636945672309
 10
18.6175646827017
 20
93.66769990269135
 30
0.0
 10
19.61470299174506
 20
94.28061978072717
 30
0.0
 10
20.60611711793472
 20
94.89002112434834
 30
0.0
 10
21.46236468270172
 20
95.41633843480145
 30
0.0
  0
SPLINE
  5
1BE
330
A
100
AcDbEntity
  8
Livello 1
370
    15
100
AcDbSpline
210
0.0
220
0.0
230
1.0
 70
    24
 71
     3
 72
     8
 73
     4
 74
     0
 42
0.0000000001
 43
0.0000000001
 40
0.0
 40
0.0
 40
0.0
 40
0.0
 40
1.0
 40
1.0
 40
1.0
 40
1.0
 10
19.2271646827017
 20
83.29215855400486
 30
0.0
 10
19.2271646827017
 20
83.29215855400486
 30
0.0
 10
19.2271646827017
 20
86.64495855400481
 30
0.0
 10
19.2271646827017
 20
86.64495855400481
 30
0.0
  0
SPLINE
  5
1BF
330
A
100
AcDbEntity
  8
Livello 1
370
    15
100
AcDbSpline
210
0.0
220
0.0
230
1.0
 70
    24
 71
     3
 72
     8
 73
     4
 74
     0
 42
0.0000000001
 43
0.0000000001
 40
0.0
 40
0.0
 40
0.0
 40
0.0
 40
1.0
 40
1.0
 40
1.0
 40
1.0
 10
19.2271646827017
 20
75.9769585540048
 30
0.0
 10
19.2271646827017
 20
75.9769585540048
 30
0.0
 10
19.2271646827017
 20
78.61855855400486
 30
0.0
 10
19.2271646827017
 20
78.61855855400486
 30
0.0
  0
SPLINE
  5
1C0
330
A
100
AcDbEntity
  8
Livello 1
370
    15
100
AcDbSpline
210
0.0
220
0.0
230
1.0
 70
     8
 71
     3
 72
    12
 73
     8
 74
     0
 42
0.0000000001
 43
0.0000000001
 40
0.0
 40
0.0
 40
0.0
 40
0.0
 40
0.5
 40
0.5
 40
0.5
 40
0.5
 40
1.0
 40
1.0
 40
1.0
 40
1.0
 10
20.03996468270174
 20
76.48495855400483
 30
0.0
 10
20.03996468270174
 20
76.48495855400483
 30
0.0
 10
19.2271646827017
 20
75.9769585540048
 30
0.0
 10
19.2271646827017
 20
75.9769585540048
 30
0.0
 10
19.2271646827017
 20
75.9769585540048
 30
0.0
 10
19.2271646827017
 20
75.9769585540048
 30
0.0
 10
19.2271646827017
 20
75.26575855400484
 30
0.0
 10
18.71916468270174
 20
75.06255855400484
 30
0.0
  0
SPLINE
  5
1C1
330
A
100
AcDbEntity
  8
Livello 1
370
    15
100
AcDbSpline
210
0.0
220
0.0
230
1.0
 70
     8
 71
     3
 72
    16
 73
    12
 74
     0
 42
0.0000000001
 43
0.0000000001
 40
0.0
 40
0.0
 40
0.0
 40
0.0
 40
0.3333333333333333
 40
0.3333333333333333
 40
0.3333333333333333
 40
0.3333333333333333
 40
0.6666666666666666
 40
0.6666666666666666
 40
0.6666666666666666
 40
0.6666666666666666
 40
1.0
 40
1.0
 40
1.0
 40
1.0
 10
22.73984191546402
 20
48.57925616454366
 30
0.0
 10
22.73984191546402
 20
48.57925616454366
 30
0.0
 10
23.55264191546399
 20
49.0872561645437
 30
0.0
 10
23.55264191546399
 20
49.0872561645437
 30
0.0
 10
23.55264191546399
 20
49.0872561645437
 30
0.0
 10
23.95904191546395
 20
49.39205616454367
 30
0.0
 10
23.95904191546395
 20
50.00165616454369
 30
0.0
 10
23.95904191546395
 20
50.00165616454369
 30
0.0
 10
23.95904191546395
 20
50.00165616454369
 30
0.0
 10
23.95904191546395
 20
50.00165616454369
 30
0.0
 10
22.73984191546402
 20
49.18885616454369
 30
0.0
 10
22.73984191546402
 20
49.18885616454369
 30
0.0
  0
SPLINE
  5
1C2
330
A
100
AcDbEntity
  8
Livello 1
370
    15
100
AcDbSpline
210
0.0
220
0.0
230
1.0
 70
    24
 71
     3
 72
     8
 73
     4
 74
     0
 42
0.0000000001
 43
0.0000000001
 40
0.0
 40
0.0
 40
0.0
 40
0.0
 40
1.0
 40
1.0
 40
1.0
 40
1.0
 10
18.82076468270168
 20
75.06255855400484
 30
0.0
 10
18.82076468270168
 20
75.06255855400484
 30
0.0
 10
20.03996468270174
 20
75.87535855400483
 30
0.0
 10
20.03996468270174
 20
75.87535855400483
 30
0.0
  0
LINE
  5
26E
330
A
100
AcDbEntity
  8
0
  6
Continuous
370
     0
100
AcDbLine
 10
22.76006529434159
 20
49.20281928123992
 30
0.0
 11
14.84893572448686
 21
44.46111333203885
 31
0.0
  0
LINE
  5
26F
330
A
100
AcDbEntity
  8
0
  6
Continuous
370
     0
100
AcDbLine
 10
22.78880563614178
 20
48.60840888934797
 30
0.0
 11
14.85780817963768
 21
43.85935900795684
 31
0.0
  0
SPLINE
  5
270
330
A
100
AcDbEntity
  8
Livello 1
370
    15
100
AcDbSpline
210
0.0
220
0.0
230
1.0
 70
     8
 71
     3
 72
    16
 73
    12
 74
     0
 42
0.0000000001
 43
0.0000000001
 40
0.2601641879466408
 40
0.2601641879466408
 40
0.2601641879466408
 40
0.2601641879466408
 40
0.3333333333333333
 40
0.3333333333333333
 40
0.3333333333333333
 40
0.3333333333333333
 40
0.6666666666666666
 40
0.6666666666666666
 40
0.6666666666666666
 40
0.6666666666666666
 40
1.0
 40
1.0
 40
1.0
 40
1.0
 10
22.65590569826791
 20
96.14998291225957
 30
0.0
 10
23.48885284661673
 20
96.66197794840059
 30
0.0
 10
24.022456359923
 20
96.98997276850626
 30
0.0
 10
24.02245635992301
 20
96.98997276850626
 30
0.0
 10
24.02245635992301
 20
96.98997276850626
 30
0.0
 10
24.42885635992303
 20
97.29477276850627
 30
0.0
 10
24.53045635992302
 20
97.70117276850626
 30
0.0
 10
24.53045635992302
 20
97.70117276850626
 30
0.0
 10
24.53045635992302
 20
97.70117276850626
 30
0.0
 10
24.53045635992302
 20
97.70117276850626
 30
0.0
 10
24.53045635992302
 20
111.0107727685063
 30
0.0
 10
24.53045635992302
 20
111.0107727685063
 30
0.0
  0
LINE
  5
271
330
A
100
AcDbEntity
  8
0
  6
Continuous
370
     0
100
AcDbLine
 10
23.60410957676106
 20
111.8673402973641
 30
0.0
 11
18.71424513939479
 21
109.4498375924311
 31
0.0
  0
SPLINE
  5
286
330
A
100
AcDbEntity
  8
Livello 1
370
    15
100
AcDbSpline
210
0.0
220
0.0
230
1.0
 70
     8
 71
     3
 72
    20
 73
    16
 74
     0
 42
0.0000000001
 43
0.0000000001
 40
0.0
 40
0.0
 40
0.0
 40
0.0
 40
0.25
 40
0.25
 40
0.25
 40
0.25
 40
0.5
 40
0.5
 40
0.5
 40
0.5
 40
0.75
 40
0.75
 40
0.75
 40
0.75
 40
1.0
 40
1.0
 40
1.0
 40
1.0
 10
-3.632835317298287
 20
95.74668358773553
 30
0.0
 10
-3.632835317298287
 20
95.74668358773553
 30
0.0
 10
-2.718435317298315
 20
96.35628358773553
 30
0.0
 10
-2.718435317298315
 20
96.35628358773553
 30
0.0
 10
-2.718435317298315
 20
96.35628358773553
 30
0.0
 10
-1.296035317298275
 20
97.06748358773555
 30
0.0
 10
0.8375646827017249
 20
95.74668358773553
 30
0.0
 10
2.158364682701715
 20
93.40988358773552
 30
0.0
 10
2.158364682701715
 20
93.40988358773552
 30
0.0
 10
3.377564682701687
 20
91.07308358773554
 30
0.0
 10
3.377564682701687
 20
88.53308358773553
 30
0.0
 10
2.056764682701725
 20
87.82188358773556
 30
0.0
 10
2.056764682701725
 20
87.82188358773556
 30
0.0
 10
2.056764682701725
 20
87.82188358773556
 30
0.0
 10
1.142364682701725
 20
87.31388358773552
 30
0.0
 10
1.142364682701725
 20
87.31388358773552
 30
0.0
  0
SPLINE
  5
287
330
A
100
AcDbEntity
  8
Livello 1
370
    15
100
AcDbSpline
210
0.0
220
0.0
230
1.0
 70
    11
 71
     3
 72
    20
 73
    16
 74
     0
 42
0.0000000001
 43
0.0000000001
 40
0.0
 40
0.0
 40
0.0
 40
0.0
 40
0.25
 40
0.25
 40
0.25
 40
0.25
 40
0.5
 40
0.5
 40
0.5
 40
0.5
 40
0.75
 40
0.75
 40
0.75
 40
0.75
 40
1.0
 40
1.0
 40
1.0
 40
1.0
 10
1.243964682701715
 20
92.90188358773553
 30
0.0
 10
2.564764682701706
 20
90.56508358773555
 30
0.0
 10
2.564764682701706
 20
88.02508358773554
 30
0.0
 10
1.142364682701725
 20
87.31388358773552
 30
0.0
 10
1.142364682701725
 20
87.31388358773552
 30
0.0
 10
-0.1784353172982946
 20
86.50108358773554
 30
0.0
 10
-2.312035317298279
 20
87.82188358773556
 30
0.0
 10
-3.632835317298287
 20
90.15868358773554
 30
0.0
 10
-3.632835317298287
 20
90.15868358773554
 30
0.0
 10
-4.953635317298278
 20
92.59708358773554
 30
0.0
 10
-4.852035317298287
 20
95.13708358773554
 30
0.0
 10
-3.531235317298296
 20
95.84828358773554
 30
0.0
 10
-3.531235317298296
 20
95.84828358773554
 30
0.0
 10
-2.210435317298276
 20
96.55948358773555
 30
0.0
 10
0.0247646827017434
 20
95.23868358773553
 30
0.0
 10
1.243964682701715
 20
92.90188358773553
 30
0.0
  0
SPLINE
  5
288
330
A
100
AcDbEntity
  8
Livello 1
370
    15
100
AcDbSpline
210
0.0
220
0.0
230
1.0
 70
    11
 71
     3
 72
    20
 73
    16
 74
     0
 42
0.0000000001
 43
0.0000000001
 40
0.0
 40
0.0
 40
0.0
 40
0.0
 40
0.25
 40
0.25
 40
0.25
 40
0.25
 40
0.5
 40
0.5
 40
0.5
 40
0.5
 40
0.75
 40
0.75
 40
0.75
 40
0.75
 40
1.0
 40
1.0
 40
1.0
 40
1.0
 10
-0.8896353172982854
 20
91.68268358773554
 30
0.0
 10
-0.7880353172982951
 20
91.47948358773552
 30
0.0
 10
-0.7880353172982951
 20
91.17468358773555
 30
0.0
 10
-0.9912353172982758
 20
91.17468358773555
 30
0.0
 10
-0.9912353172982758
 20
91.17468358773555
 30
0.0
 10
-1.09283531729828
 20
91.07308358773554
 30
0.0
 10
-1.296035317298275
 20
91.17468358773555
 30
0.0
 10
-1.397635317298294
 20
91.37788358773553
 30
0.0
 10
-1.397635317298294
 20
91.37788358773553
 30
0.0
 10
-1.600835317298319
 20
91.68268358773554
 30
0.0
 10
-1.600835317298319
 20
91.88588358773552
 30
0.0
 10
-1.397635317298294
 20
91.98748358773555
 30
0.0
 10
-1.397635317298294
 20
91.98748358773555
 30
0.0
 10
-1.296035317298275
 20
92.08908358773555
 30
0.0
 10
-1.09283531729828
 20
91.98748358773555
 30
0.0
 10
-0.8896353172982854
 20
91.68268358773554
 30
0.0
  0
SPLINE
  5
289
330
A
100
AcDbEntity
  8
Livello 1
370
    15
100
AcDbSpline
210
0.0
220
0.0
230
1.0
 70
    11
 71
     3
 72
    36
 73
    32
 74
     0
 42
0.0000000001
 43
0.0000000001
 40
0.0
 40
0.0
 40
0.0
 40
0.0
 40
0.125
 40
0.125
 40
0.125
 40
0.125
 40
0.25
 40
0.25
 40
0.25
 40
0.25
 40
0.375
 40
0.375
 40
0.375
 40
0.375
 40
0.5
 40
0.5
 40
0.5
 40
0.5
 40
0.625
 40
0.625
 40
0.625
 40
0.625
 40
0.75
 40
0.75
 40
0.75
 40
0.75
 40
0.875
 40
0.875
 40
0.875
 40
0.875
 40
1.0
 40
1.0
 40
1.0
 40
1.0
 10
-44.78083531729827
 20
114.6442835877355
 30
0.0
 10
-44.78083531729827
 20
114.6442835877355
 30
0.0
 10
-44.78083531729827
 20
113.2218835877355
 30
0.0
 10
-43.46003531729827
 20
112.3074835877355
 30
0.0
 10
-43.46003531729827
 20
112.3074835877355
 30
0.0
 10
-43.46003531729827
 20
112.3074835877355
 30
0.0
 10
-10.23683531729828
 20
93.00348358773552
 30
0.0
 10
-10.23683531729828
 20
93.00348358773552
 30
0.0
 10
-10.23683531729828
 20
93.00348358773552
 30
0.0
 10
-10.23683531729828
 20
93.00348358773552
 30
0.0
 10
-9.017635317298299
 20
92.39388358773556
 30
0.0
 10
-8.916035317298279
 20
93.71468358773553
 30
0.0
 10
-8.916035317298279
 20
93.71468358773553
 30
0.0
 10
-8.916035317298279
 20
93.71468358773553
 30
0.0
 10
-8.916035317298279
 20
100.3186835877355
 30
0.0
 10
-8.916035317298279
 20
100.3186835877355
 30
0.0
 10
-8.916035317298279
 20
100.3186835877355
 30
0.0
 10
-9.017635317298299
 20
102.0458835877355
 30
0.0
 10
-10.64323531729826
 20
102.7570835877355
 30
0.0
 10
-10.64323531729826
 20
102.7570835877355
 30
0.0
 10
-10.64323531729826
 20
102.7570835877355
 30
0.0
 10
-10.64323531729826
 20
102.7570835877355
 30
0.0
 10
-43.66323531729825
 20
121.9594835877355
 30
0.0
 10
-43.66323531729825
 20
121.9594835877355
 30
0.0
 10
-43.66323531729825
 20
121.9594835877355
 30
0.0
 10
-43.66323531729825
 20
121.9594835877355
 30
0.0
 10
-44.67923531729828
 20
122.4674835877355
 30
0.0
 10
-44.78083531729827
 20
121.0450835877355
 30
0.0
 10
-44.78083531729827
 20
121.0450835877355
 30
0.0
 10
-44.78083531729827
 20
121.0450835877355
 30
0.0
 10
-44.78083531729827
 20
114.6442835877355
 30
0.0
 10
-44.78083531729827
 20
114.6442835877355
 30
0.0
  0
ENDSEC
  0
SECTION
  2
OBJECTS
  0
DICTIONARY
  5
19
330
0
100
AcDbDictionary
281
     1
  3
ACAD_COLOR
350
1C8
  3
ACAD_GROUP
350
1A
  3
ACAD_LAYOUT
350
1E
  3
ACAD_MATERIAL
350
1C7
  3
ACAD_MLINESTYLE
350
1B
  3
ACAD_PLOTSETTINGS
350
22
  3
ACAD_PLOTSTYLENAME
350
1F
  3
ACAD_WIPEOUT_VARS
350
23
  3
ACDBHEADERROUNDTRIPXREC
350
2AB
  3
AcDbVariableDictionary
350
253
  0
DICTIONARY
  5
1C8
102
{ACAD_REACTORS
330
19
102
}
330
19
100
AcDbDictionary
281
     1
  0
DICTIONARY
  5
1A
102
{ACAD_REACTORS
330
19
102
}
330
19
100
AcDbDictionary
281
     1
  0
DICTIONARY
  5
1E
102
{ACAD_REACTORS
330
19
102
}
330
19
100
AcDbDictionary
281
     1
  3
Layout1
350
21
  3
Model
350
20
  0
DICTIONARY
  5
1C7
102
{ACAD_REACTORS
330
19
102
}
330
19
100
AcDbDictionary
281
     1
  0
DICTIONARY
  5
1B
102
{ACAD_REACTORS
330
19
102
}
330
19
100
AcDbDictionary
281
     1
  3
Standard
350
1C
  0
DICTIONARY
  5
22
102
{ACAD_REACTORS
330
19
102
}
330
19
100
AcDbDictionary
281
     1
  0
ACDBDICTIONARYWDFLT
  5
1F
102
{ACAD_REACTORS
330
19
102
}
330
19
100
AcDbDictionary
281
     1
  3
Normal
350
1D
100
AcDbDictionaryWithDefault
340
1D
  0
WIPEOUTVARIABLES
  5
23
330
19
100
AcDbWipeoutVariables
 70
     1
  0
DICTIONARY
  5
2AB
102
{ACAD_REACTORS
330
19
102
}
330
19
100
AcDbDictionary
281
     1
  3
COLORDICT
350
2AD
  3
MATERIALDICT
350
2AC
  0
DICTIONARY
  5
253
102
{ACAD_REACTORS
330
19
102
}
330
19
100
AcDbDictionary
281
     1
  3
DIMASSOC
350
254
  3
PROJECTNAME
350
255
  0
LAYOUT
  5
21
102
{ACAD_XDICTIONARY
360
2B0
102
}
102
{ACAD_REACTORS
330
1E
102
}
330
1E
100
AcDbPlotSettings
  1

  2

  4

  6

 40
0.0
 41
0.0
 42
0.0
 43
0.0
 44
0.0
 45
0.0
 46
0.0
 47
0.0
 48
0.0
 49
0.0
140
0.0
141
0.0
142
1.0
143
1.0
 70
     0
 72
     0
 73
     0
 74
     0
  7

 75
     0
147
1.0
148
0.0
149
0.0
100
AcDbLayout
  1
Layout1
 70
     0
 71
     1
 10
0.0
 20
0.0
 11
12.0
 21
9.0
 12
0.0
 22
0.0
 32
0.0
 14
1.000000000000000E+20
 24
1.000000000000000E+20
 34
1.000000000000000E+20
 15
-1.000000000000000E+20
 25
-1.000000000000000E+20
 35
-1.000000000000000E+20
146
0.0
 13
0.0
 23
0.0
 33
0.0
 16
1.0
 26
0.0
 36
0.0
 17
0.0
 27
1.0
 37
0.0
 76
     0
330
B
  0
LAYOUT
  5
20
102
{ACAD_XDICTIONARY
360
2AE
102
}
102
{ACAD_REACTORS
330
1E
102
}
330
1E
100
AcDbPlotSettings
  1

  2

  4

  6

 40
0.0
 41
0.0
 42
0.0
 43
0.0
 44
0.0
 45
0.0
 46
0.0
 47
0.0
 48
0.0
 49
0.0
140
0.0
141
0.0
142
1.0
143
1.0
 70
  1024
 72
     0
 73
     0
 74
     0
  7

 75
     0
147
1.0
148
0.0
149
0.0
100
AcDbLayout
  1
Model
 70
     0
 71
     0
 10
0.0
 20
0.0
 11
0.0
 21
0.0
 12
0.0
 22
0.0
 32
0.0
 14
0.0
 24
0.0
 34
0.0
 15
0.0
 25
0.0
 35
0.0
146
0.0
 13
0.0
 23
0.0
 33
0.0
 16
0.0
 26
0.0
 36
0.0
 17
0.0
 27
0.0
 37
0.0
 76
     0
330
A
  0
MLINESTYLE
  5
1C
102
{ACAD_REACTORS
330
1B
102
}
330
1B
100
AcDbMlineStyle
  2
STANDARD
 70
     0
  3

 62
     0
 51
90.0
 52
90.0
 71
     2
 49
0.5
 62
   256
  6
BYLAYER
 49
-0.5
 62
   256
  6
BYLAYER
  0
ACDBPLACEHOLDER
  5
1D
102
{ACAD_REACTORS
330
1F
102
}
330
1F
  0
XRECORD
  5
2AD
102
{ACAD_REACTORS
330
2AB
102
}
330
2AB
100
AcDbXrecord
280
     1
340
1C8
  0
XRECORD
  5
2AC
102
{ACAD_REACTORS
330
2AB
102
}
330
2AB
100
AcDbXrecord
280
     1
340
1C7
  0
DICTIONARYVAR
  5
254
102
{ACAD_REACTORS
330
253
102
}
330
253
100
DictionaryVariables
280
     0
  1
1
  0
DICTIONARYVAR
  5
255
102
{ACAD_REACTORS
330
253
102
}
330
253
100
DictionaryVariables
280
     0
  1

  0
DICTIONARY
  5
2B0
330
21
100
AcDbDictionary
280
     1
281
     1
  3
ACAD_XREC_ROUNDTRIP
360
2B1
  0
DICTIONARY
  5
2AE
330
20
100
AcDbDictionary
280
     1
281
     1
  3
ACAD_XREC_ROUNDTRIP
360
2AF
  0
XRECORD
  5
2B1
102
{ACAD_REACTORS
330
2B0
102
}
330
2B0
100
AcDbXrecord
280
     1
102
SHADEPLOT
 70
     0
102
SHADEPLOTRESLEVEL
 70
     2
102
SHADEPLOTCUSTOMDPI
 70
   300
  0
XRECORD
  5
2AF
102
{ACAD_REACTORS
330
2AE
102
}
330
2AE
100
AcDbXrecord
280
     1
102
SHADEPLOT
 70
     0
102
SHADEPLOTRESLEVEL
 70
     2
102
SHADEPLOTCUSTOMDPI
 70
   300
  0
ENDSEC
  0
EOF
