  0
SECTION
  2
HEADER
  9
$ACADVER
  1
AC1015
  9
$ACADMAINTVER
 70
    20
  9
$DWGCODEPAGE
  3
ANSI_1252
  9
$INSBASE
 10
0.0
 20
0.0
 30
0.0
  9
$EXTMIN
 10
-16.74374418069067
 20
-48.39921388816742
 30
-0.0000000349181948
  9
$EXTMAX
 10
108.3310823858875
 20
104.853499643575
 30
0.0000000814935746
  9
$LIMMIN
 10
0.0
 20
0.0
  9
$LIMMAX
 10
33.99993199999999
 20
21.999956
  9
$ORTHOMODE
 70
     0
  9
$REGENMODE
 70
     1
  9
$FILLMODE
 70
     1
  9
$QTEXTMODE
 70
     0
  9
$MIRRTEXT
 70
     1
  9
$LTSCALE
 40
1.0
  9
$ATTMODE
 70
     1
  9
$TEXTSIZE
 40
0.2
  9
$TRACEWID
 40
0.05
  9
$TEXTSTYLE
  7
Standard
  9
$CLAYER
  8
0
  9
$CELTYPE
  6
ByLayer
  9
$CECOLOR
 62
   256
  9
$CELTSCALE
 40
1.0
  9
$DISPSILH
 70
     0
  9
$DIMSCALE
 40
1.0
  9
$DIMASZ
 40
0.18
  9
$DIMEXO
 40
0.0625
  9
$DIMDLI
 40
0.38
  9
$DIMRND
 40
0.0
  9
$DIMDLE
 40
0.0
  9
$DIMEXE
 40
0.18
  9
$DIMTP
 40
0.0
  9
$DIMTM
 40
0.0
  9
$DIMTXT
 40
0.18
  9
$DIMCEN
 40
0.09
  9
$DIMTSZ
 40
0.0
  9
$DIMTOL
 70
     0
  9
$DIMLIM
 70
     0
  9
$DIMTIH
 70
     1
  9
$DIMTOH
 70
     1
  9
$DIMSE1
 70
     0
  9
$DIMSE2
 70
     0
  9
$DIMTAD
 70
     0
  9
$DIMZIN
 70
     0
  9
$DIMBLK
  1

  9
$DIMASO
 70
     1
  9
$DIMSHO
 70
     1
  9
$DIMPOST
  1

  9
$DIMAPOST
  1

  9
$DIMALT
 70
     0
  9
$DIMALTD
 70
     2
  9
$DIMALTF
 40
25.4
  9
$DIMLFAC
 40
1.0
  9
$DIMTOFL
 70
     0
  9
$DIMTVP
 40
0.0
  9
$DIMTIX
 70
     0
  9
$DIMSOXD
 70
     0
  9
$DIMSAH
 70
     0
  9
$DIMBLK1
  1

  9
$DIMBLK2
  1

  9
$DIMSTYLE
  2
Standard
  9
$DIMCLRD
 70
     0
  9
$DIMCLRE
 70
     0
  9
$DIMCLRT
 70
     0
  9
$DIMTFAC
 40
1.0
  9
$DIMGAP
 40
0.09
  9
$DIMJUST
 70
     0
  9
$DIMSD1
 70
     0
  9
$DIMSD2
 70
     0
  9
$DIMTOLJ
 70
     1
  9
$DIMTZIN
 70
     0
  9
$DIMALTZ
 70
     0
  9
$DIMALTTZ
 70
     0
  9
$DIMUPT
 70
     0
  9
$DIMDEC
 70
     4
  9
$DIMTDEC
 70
     4
  9
$DIMALTU
 70
     2
  9
$DIMALTTD
 70
     2
  9
$DIMTXSTY
  7
Standard
  9
$DIMAUNIT
 70
     0
  9
$DIMADEC
 70
     0
  9
$DIMALTRND
 40
0.0
  9
$DIMAZIN
 70
     0
  9
$DIMDSEP
 70
    46
  9
$DIMATFIT
 70
     3
  9
$DIMFRAC
 70
     0
  9
$DIMLDRBLK
  1

  9
$DIMLUNIT
 70
     2
  9
$DIMLWD
 70
    -2
  9
$DIMLWE
 70
    -2
  9
$DIMTMOVE
 70
     0
  9
$LUNITS
 70
     2
  9
$LUPREC
 70
     4
  9
$SKETCHINC
 40
0.1
  9
$FILLETRAD
 40
0.5
  9
$AUNITS
 70
     0
  9
$AUPREC
 70
     0
  9
$MENU
  1
.
  9
$ELEVATION
 40
0.0
  9
$PELEVATION
 40
0.0
  9
$THICKNESS
 40
0.0
  9
$LIMCHECK
 70
     0
  9
$CHAMFERA
 40
0.5
  9
$CHAMFERB
 40
0.5
  9
$CHAMFERC
 40
1.0
  9
$CHAMFERD
 40
0.0
  9
$SKPOLY
 70
     0
  9
$TDCREATE
 40
2455077.696315776
  9
$TDUCREATE
 40
2455077.612982442
  9
$TDUPDATE
 40
2455077.700972535
  9
$TDUUPDATE
 40
2455077.617639201
  9
$TDINDWG
 40
0.0028890046
  9
$TDUSRTIMER
 40
0.0028890046
  9
$USRTIMER
 70
     1
  9
$ANGBASE
 50
0.0
  9
$ANGDIR
 70
     0
  9
$PDMODE
 70
     0
  9
$PDSIZE
 40
0.0
  9
$PLINEWID
 40
0.0
  9
$SPLFRAME
 70
     0
  9
$SPLINETYPE
 70
     6
  9
$SPLINESEGS
 70
     8
  9
$HANDSEED
  5
21B
  9
$SURFTAB1
 70
     6
  9
$SURFTAB2
 70
     6
  9
$SURFTYPE
 70
     6
  9
$SURFU
 70
     6
  9
$SURFV
 70
     6
  9
$UCSBASE
  2

  9
$UCSNAME
  2

  9
$UCSORG
 10
0.0
 20
0.0
 30
0.0
  9
$UCSXDIR
 10
1.0
 20
0.0
 30
0.0
  9
$UCSYDIR
 10
0.0
 20
1.0
 30
0.0
  9
$UCSORTHOREF
  2

  9
$UCSORTHOVIEW
 70
     0
  9
$UCSORGTOP
 10
0.0
 20
0.0
 30
0.0
  9
$UCSORGBOTTOM
 10
0.0
 20
0.0
 30
0.0
  9
$UCSORGLEFT
 10
0.0
 20
0.0
 30
0.0
  9
$UCSORGRIGHT
 10
0.0
 20
0.0
 30
0.0
  9
$UCSORGFRONT
 10
0.0
 20
0.0
 30
0.0
  9
$UCSORGBACK
 10
0.0
 20
0.0
 30
0.0
  9
$PUCSBASE
  2

  9
$PUCSNAME
  2

  9
$PUCSORG
 10
0.0
 20
0.0
 30
0.0
  9
$PUCSXDIR
 10
1.0
 20
0.0
 30
0.0
  9
$PUCSYDIR
 10
0.0
 20
1.0
 30
0.0
  9
$PUCSORTHOREF
  2

  9
$PUCSORTHOVIEW
 70
     0
  9
$PUCSORGTOP
 10
0.0
 20
0.0
 30
0.0
  9
$PUCSORGBOTTOM
 10
0.0
 20
0.0
 30
0.0
  9
$PUCSORGLEFT
 10
0.0
 20
0.0
 30
0.0
  9
$PUCSORGRIGHT
 10
0.0
 20
0.0
 30
0.0
  9
$PUCSORGFRONT
 10
0.0
 20
0.0
 30
0.0
  9
$PUCSORGBACK
 10
0.0
 20
0.0
 30
0.0
  9
$USERI1
 70
     0
  9
$USERI2
 70
     0
  9
$USERI3
 70
     0
  9
$USERI4
 70
     0
  9
$USERI5
 70
     0
  9
$USERR1
 40
0.0
  9
$USERR2
 40
0.0
  9
$USERR3
 40
0.0
  9
$USERR4
 40
0.0
  9
$USERR5
 40
0.0
  9
$WORLDVIEW
 70
     1
  9
$SHADEDGE
 70
     3
  9
$SHADEDIF
 70
    70
  9
$TILEMODE
 70
     1
  9
$MAXACTVP
 70
    64
  9
$PINSBASE
 10
0.0
 20
0.0
 30
0.0
  9
$PLIMCHECK
 70
     0
  9
$PEXTMIN
 10
0.0
 20
0.0
 30
0.0
  9
$PEXTMAX
 10
33.99993199999999
 20
21.999956
 30
0.0
  9
$PLIMMIN
 10
0.0
 20
0.0
  9
$PLIMMAX
 10
33.99993199999999
 20
21.999956
  9
$UNITMODE
 70
     0
  9
$VISRETAIN
 70
     1
  9
$PLINEGEN
 70
     0
  9
$PSLTSCALE
 70
     1
  9
$TREEDEPTH
 70
  3020
  9
$CMLSTYLE
  2
Standard
  9
$CMLJUST
 70
     0
  9
$CMLSCALE
 40
1.0
  9
$PROXYGRAPHICS
 70
     1
  9
$MEASUREMENT
 70
     0
  9
$CELWEIGHT
370
    -1
  9
$ENDCAPS
280
     0
  9
$JOINSTYLE
280
     0
  9
$LWDISPLAY
290
     0
  9
$INSUNITS
 70
     1
  9
$HYPERLINKBASE
  1

  9
$STYLESHEET
  1

  9
$XEDIT
290
     1
  9
$CEPSNTYPE
380
     0
  9
$PSTYLEMODE
290
     1
  9
$FINGERPRINTGUID
  2
{0B8F0A8C-2E36-405A-950D-37631CBFC033}
  9
$VERSIONGUID
  2
{DA02AD6B-5680-46FC-B3EE-D14E051460F7}
  9
$EXTNAMES
290
     1
  9
$PSVPSCALE
 40
0.0
  9
$OLESTARTUP
290
     0
  0
ENDSEC
  0
SECTION
  2
CLASSES
  0
CLASS
  1
ACDBDICTIONARYWDFLT
  2
AcDbDictionaryWithDefault
  3
ObjectDBX Classes
 90
        0
280
     0
281
     0
  0
CLASS
  1
ACDBPLACEHOLDER
  2
AcDbPlaceHolder
  3
ObjectDBX Classes
 90
        0
280
     0
281
     0
  0
CLASS
  1
LAYOUT
  2
AcDbLayout
  3
ObjectDBX Classes
 90
        0
280
     0
281
     0
  0
CLASS
  1
DICTIONARYVAR
  2
AcDbDictionaryVar
  3
ObjectDBX Classes
 90
        0
280
     0
281
     0
  0
ENDSEC
  0
SECTION
  2
TABLES
  0
TABLE
  2
VPORT
  5
8
330
0
100
AcDbSymbolTable
 70
     3
  0
VPORT
  5
213
330
8
100
AcDbSymbolTableRecord
100
AcDbViewportTableRecord
  2
*Active
 70
     0
 10
0.0
 20
0.0
 11
1.0
 21
1.0
 12
45.79366910259844
 22
28.22714287770381
 13
0.0
 23
0.0
 14
0.5
 24
0.5
 15
0.5
 25
0.5
 16
0.0
 26
0.0
 36
1.0
 17
0.0
 27
0.0
 37
0.0
 40
154.4657956969014
 41
1.573315719947159
 42
50.0
 43
0.0
 44
0.0
 50
0.0
 51
0.0
 71
     0
 72
   100
 73
     1
 74
     3
 75
     0
 76
     0
 77
     0
 78
     0
281
     0
 65
     1
110
0.0
120
0.0
130
0.0
111
1.0
121
0.0
131
0.0
112
0.0
122
1.0
132
0.0
 79
     0
146
0.0
  0
ENDTAB
  0
TABLE
  2
LTYPE
  5
5
330
0
100
AcDbSymbolTable
 70
     1
  0
LTYPE
  5
14
330
5
100
AcDbSymbolTableRecord
100
AcDbLinetypeTableRecord
  2
ByBlock
 70
     0
  3

 72
    65
 73
     0
 40
0.0
  0
LTYPE
  5
15
330
5
100
AcDbSymbolTableRecord
100
AcDbLinetypeTableRecord
  2
ByLayer
 70
     0
  3

 72
    65
 73
     0
 40
0.0
  0
LTYPE
  5
16
330
5
100
AcDbSymbolTableRecord
100
AcDbLinetypeTableRecord
  2
Continuous
 70
     0
  3
Solid line
 72
    65
 73
     0
 40
0.0
  0
ENDTAB
  0
TABLE
  2
LAYER
  5
2
330
0
100
AcDbSymbolTable
 70
     5
  0
LAYER
  5
10
330
2
100
AcDbSymbolTableRecord
100
AcDbLayerTableRecord
  2
0
 70
     0
 62
     7
  6
Continuous
370
    -3
390
F
  0
LAYER
  5
2A
330
2
100
AcDbSymbolTableRecord
100
AcDbLayerTableRecord
  2
Default
 70
     0
 62
     7
  6
Continuous
370
    -3
390
F
  0
LAYER
  5
2D
330
2
100
AcDbSymbolTableRecord
100
AcDbLayerTableRecord
  2
1_0
 70
     0
 62
     7
  6
Continuous
370
    -3
390
F
  0
LAYER
  5
72
330
2
100
AcDbSymbolTableRecord
100
AcDbLayerTableRecord
  2
1
 70
     0
 62
     7
  6
Continuous
370
    -3
390
F
  0
LAYER
  5
C5
330
2
100
AcDbSymbolTableRecord
100
AcDbLayerTableRecord
  2
Defpoints
 70
     0
 62
     7
  6
Continuous
290
     0
370
    -3
390
F
  0
ENDTAB
  0
TABLE
  2
STYLE
  5
3
330
0
100
AcDbSymbolTable
 70
     1
  0
STYLE
  5
11
330
3
100
AcDbSymbolTableRecord
100
AcDbTextStyleTableRecord
  2
Standard
 70
     0
 40
0.0
 41
1.0
 50
0.0
 71
     0
 42
0.2
  3
txt
  4

  0
ENDTAB
  0
TABLE
  2
VIEW
  5
6
330
0
100
AcDbSymbolTable
 70
     0
  0
ENDTAB
  0
TABLE
  2
UCS
  5
7
330
0
100
AcDbSymbolTable
 70
     0
  0
ENDTAB
  0
TABLE
  2
APPID
  5
9
330
0
100
AcDbSymbolTable
 70
     1
  0
APPID
  5
12
330
9
100
AcDbSymbolTableRecord
100
AcDbRegAppTableRecord
  2
ACAD
 70
     0
  0
ENDTAB
  0
TABLE
  2
DIMSTYLE
  5
A
330
0
100
AcDbSymbolTable
 70
     3
100
AcDbDimStyleTable
 71
     2
340
14E
340
27
  0
DIMSTYLE
105
27
330
A
100
AcDbSymbolTableRecord
100
AcDbDimStyleTableRecord
  2
Standard
 70
     0
340
11
  0
DIMSTYLE
105
14D
330
A
100
AcDbSymbolTableRecord
100
AcDbDimStyleTableRecord
  2
ISO-25
 70
     0
 41
2.5
 42
0.625
 43
3.75
 44
1.25
 73
     0
 74
     0
 77
     1
 78
     8
140
2.5
141
2.5
143
0.03937007874016
147
0.625
171
     3
172
     1
271
     2
272
     2
274
     3
278
    44
283
     0
284
     8
340
11
  0
DIMSTYLE
105
14E
330
A
100
AcDbSymbolTableRecord
100
AcDbDimStyleTableRecord
  2
file dxf
 70
     0
  3
mm
 41
5.0
 42
5.0
140
3.0
147
2.0
176
     3
177
     3
178
     3
271
     0
272
     0
289
     0
340
11
  0
ENDTAB
  0
TABLE
  2
BLOCK_RECORD
  5
1
330
0
100
AcDbSymbolTable
 70
     6
  0
BLOCK_RECORD
  5
1F
330
1
100
AcDbSymbolTableRecord
100
AcDbBlockTableRecord
  2
*Model_Space
340
22
  0
BLOCK_RECORD
  5
1B
330
1
100
AcDbSymbolTableRecord
100
AcDbBlockTableRecord
  2
*Paper_Space
340
1E
  0
BLOCK_RECORD
  5
2B
330
1
100
AcDbSymbolTableRecord
100
AcDbBlockTableRecord
  2
SE
340
0
102
{BLKREFS
331
2C
102
}
  0
BLOCK_RECORD
  5
C6
330
1
100
AcDbSymbolTableRecord
100
AcDbBlockTableRecord
  2
*D1
340
0
  0
BLOCK_RECORD
  5
D4
330
1
100
AcDbSymbolTableRecord
100
AcDbBlockTableRecord
  2
*D2
340
0
  0
BLOCK_RECORD
  5
E2
330
1
100
AcDbSymbolTableRecord
100
AcDbBlockTableRecord
  2
*D3
340
0
  0
BLOCK_RECORD
  5
104
330
1
100
AcDbSymbolTableRecord
100
AcDbBlockTableRecord
  2
*D4
340
0
  0
ENDTAB
  0
ENDSEC
  0
SECTION
  2
BLOCKS
  0
BLOCK
  5
20
330
1F
100
AcDbEntity
  8
0
100
AcDbBlockBegin
  2
*Model_Space
 70
     0
 10
0.0
 20
0.0
 30
0.0
  3
*Model_Space
  1

  0
ENDBLK
  5
21
330
1F
100
AcDbEntity
  8
0
100
AcDbBlockEnd
  0
BLOCK
  5
1C
330
1B
100
AcDbEntity
 67
     1
  8
0
100
AcDbBlockBegin
  2
*Paper_Space
 70
     0
 10
0.0
 20
0.0
 30
0.0
  3
*Paper_Space
  1

  0
ENDBLK
  5
1D
330
1B
100
AcDbEntity
 67
     1
  8
0
100
AcDbBlockEnd
  0
BLOCK
  5
BC
330
2B
100
AcDbEntity
  8
0
100
AcDbBlockBegin
  2
SE
 70
     0
 10
0.0
 20
0.0
 30
0.0
  3
SE
  1

  0
LINE
  5
2E
330
2B
100
AcDbEntity
  8
1_0
  6
Continuous
 62
     7
100
AcDbLine
 10
13.8295285867997
 20
3.820909641400629
 30
0.0
 11
13.82932215131603
 21
3.820818497252195
 31
0.0
  0
LINE
  5
2F
330
2B
100
AcDbEntity
  8
1_0
  6
Continuous
 62
     7
100
AcDbLine
 10
10.69871306388415
 20
7.544641549458081
 30
0.0
 11
10.88858537024711
 21
7.659957591831383
 31
0.0
  0
LINE
  5
30
330
2B
100
AcDbEntity
  8
1_0
  6
Continuous
 62
     7
100
AcDbLine
 10
11.07168363672171
 20
8.298843797583542
 30
0.0
 11
10.91893177003724
 21
8.206072286726568
 31
0.0
  0
LINE
  5
31
330
2B
100
AcDbEntity
  8
1_0
  6
Continuous
 62
     7
100
AcDbLine
 10
10.98818409322388
 20
8.528183493762703
 30
0.0
 11
10.9676647440447
 21
8.540030345534894
 31
0.0
  0
LINE
  5
32
330
2B
100
AcDbEntity
  8
1_0
  6
Continuous
 62
     7
100
AcDbLine
 10
10.7581735350062
 20
7.535835788644312
 30
0.0
 11
10.66437089258969
 21
7.478866181008396
 31
0.0
  0
LINE
  5
33
330
2B
100
AcDbEntity
  8
1_0
  6
Continuous
 62
     7
100
AcDbLine
 10
10.85687020176196
 20
7.589089606955118
 30
0.0
 11
10.7581735350062
 21
7.535835788644312
 31
0.0
  0
ELLIPSE
  5
34
330
2B
100
AcDbEntity
  8
1_0
  6
Continuous
 62
     7
100
AcDbEllipse
 10
10.42491634520963
 20
6.867042767216616
 30
0.0
 11
0.1296411954007199
 21
0.2206429403855889
 31
0.0
210
0.0
220
0.0
230
1.0
 40
0.5823663570158119
 41
0.8239360791394505
 42
1.959042993670664
  0
LINE
  5
35
330
2B
100
AcDbEntity
  8
1_0
  6
Continuous
 62
     7
100
AcDbLine
 10
10.41869363112449
 20
7.072336777838478
 30
0.0
 11
10.61283781136276
 21
7.190247306615313
 31
0.0
  0
LINE
  5
36
330
2B
100
AcDbEntity
  8
1_0
  6
Continuous
 62
     7
100
AcDbLine
 10
10.75817353500612
 20
7.402136017339481
 30
0.0
 11
10.7581735350062
 21
7.535835788644312
 31
0.0
  0
ELLIPSE
  5
37
330
2B
100
AcDbEntity
  8
1_0
  6
Continuous
 62
     7
100
AcDbEllipse
 10
10.4249164135933
 20
6.883125367688858
 30
0.0
 11
0.2792271900938569
 21
0.4752309485228069
 31
0.0
210
0.0
220
0.0
230
1.0
 40
0.5823663570158136
 41
2.023932644892603
 42
2.194360259330804
  0
LINE
  5
38
330
2B
100
AcDbEntity
  8
1_0
  6
Continuous
 62
     7
100
AcDbLine
 10
10.96384054709866
 20
8.502657819452277
 30
0.0
 11
11.10843137297748
 21
8.589077142601221
 31
0.0
  0
ELLIPSE
  5
39
330
2B
100
AcDbEntity
  8
1_0
  6
Continuous
 62
     7
100
AcDbEllipse
 10
11.11127950737585
 20
8.565062460592557
 30
0.0
 11
0.0157492307924655
 21
-0.0272784679126814
 31
0.0
210
0.0
220
0.0
230
1.0
 40
0.5773063042423758
 41
2.356139359070892
 42
3.150318635345537
  0
LINE
  5
3A
330
2B
100
AcDbEntity
  8
1_0
  6
Continuous
 62
     7
100
AcDbLine
 10
11.0971298134638
 20
8.477503024810127
 30
0.0
 11
10.9503014913121
 21
8.392731708730055
 31
0.0
  0
LINE
  5
3B
330
2B
100
AcDbEntity
  8
1_0
  6
Continuous
 62
     7
100
AcDbLine
 10
10.94200059341178
 20
8.336505795690928
 30
0.0
 11
11.09023614233994
 21
8.422089629627006
 31
0.0
  0
LINE
  5
3C
330
2B
100
AcDbEntity
  8
1_0
  6
Continuous
 62
     7
100
AcDbLine
 10
10.84355406727546
 20
7.907380051355849
 30
0.0
 11
11.00770495810424
 21
8.005490071773007
 31
0.0
  0
LINE
  5
3D
330
2B
100
AcDbEntity
  8
1_0
  6
Continuous
 62
     7
100
AcDbLine
 10
10.78090104062839
 20
7.72916636927067
 30
0.0
 11
10.95357487323579
 21
7.828859653008545
 31
0.0
  0
LINE
  5
3E
330
2B
100
AcDbEntity
  8
1_0
  6
Continuous
 62
     7
100
AcDbLine
 10
10.97455880666042
 20
7.89240827998412
 30
0.0
 11
10.80577350131829
 21
7.794960102013185
 31
0.0
  0
ELLIPSE
  5
3F
330
2B
100
AcDbEntity
  8
1_0
  6
Continuous
 62
     7
100
AcDbEllipse
 10
8.033937689255617
 20
14.55559206304874
 30
0.0
 11
0.0157453580862428
 21
-0.0272717601887409
 31
0.0
210
0.0
220
0.0
230
1.0
 40
0.5773502691896791
 41
2.985713739185708
 42
3.821764575203301
  0
ELLIPSE
  5
40
330
2B
100
AcDbEntity
  8
1_0
  6
Continuous
 62
     7
100
AcDbEllipse
 10
11.15679284817615
 20
12.37174314948286
 30
0.0
 11
-2.236220472444008
 21
3.873247475193561
 31
0.0
210
0.0
220
0.0
230
1.0
 40
0.5773502691896585
 41
0.6801667293213879
 42
0.6825753226325345
  0
LINE
  5
41
330
2B
100
AcDbEntity
  8
1_0
  6
Continuous
 62
     7
100
AcDbLine
 10
5.143601187047819
 20
19.12230422076078
 30
0.0
 11
5.143601187049993
 21
19.12254252126144
 31
0.0
  0
LINE
  5
42
330
2B
100
AcDbEntity
  8
1_0
  6
Continuous
 62
     7
100
AcDbLine
 10
5.366105655653619
 20
19.25100553612551
 30
0.0
 11
7.224588860104502
 21
20.14664664036619
 31
0.0
  0
ELLIPSE
  5
43
330
2B
100
AcDbEntity
  8
1_0
  6
Continuous
 62
     7
100
AcDbEllipse
 10
7.225001871208073
 20
19.88900501203419
 30
0.0
 11
0.1577726274870328
 21
-0.2732702068512108
 31
0.0
210
0.0
220
0.0
230
1.0
 40
0.576280586073505
 41
2.357120483121732
 42
3.098595581562814
  0
ELLIPSE
  5
44
330
2B
100
AcDbEntity
  8
1_0
  6
Continuous
 62
     7
100
AcDbEllipse
 10
5.366518666786197
 20
18.99336390778559
 30
0.0
 11
0.1577726274870324
 21
-0.2732702068512084
 31
0.0
210
0.0
220
0.0
230
1.0
 40
0.5762805860735085
 41
2.357120483216026
 42
3.926064824054448
  0
ELLIPSE
  5
45
330
2B
100
AcDbEntity
  8
1_0
  6
Continuous
 62
     7
100
AcDbEllipse
 10
5.36602498231406
 20
18.99421816488592
 30
0.0
 11
0.0785383711707345
 21
-0.1360323412779339
 31
0.0
210
0.0
220
0.0
230
1.0
 40
0.5773502691896578
 41
2.35546480592583
 42
3.92772010856394
  0
LINE
  5
46
330
2B
100
AcDbEntity
  8
1_0
  6
Continuous
 62
     7
100
AcDbLine
 10
8.849700824537395
 20
17.11116867293147
 30
0.0
 11
5.366106365076515
 21
19.12242287184847
 31
0.0
  0
LINE
  5
47
330
2B
100
AcDbEntity
  8
1_0
  6
Continuous
 62
     7
100
AcDbLine
 10
8.940820170235504
 20
17.16054113487999
 30
0.0
 11
8.940820170235504
 21
17.18714303289289
 31
0.0
  0
LINE
  5
48
330
2B
100
AcDbEntity
  8
1_0
  6
Continuous
 62
     7
100
AcDbLine
 10
5.366105655653619
 20
19.25100553612551
 30
0.0
 11
8.940820170235502
 21
17.18714303289289
 31
0.0
  0
LINE
  5
49
330
2B
100
AcDbEntity
  8
1_0
  6
Continuous
 62
     7
100
AcDbLine
 10
13.82932217770165
 20
3.692447587851515
 30
0.0
 11
13.82952840998763
 21
3.692328519586797
 31
0.0
  0
ELLIPSE
  5
4A
330
2B
100
AcDbEntity
  8
1_0
  6
Continuous
 62
     7
100
AcDbEllipse
 10
13.82911537730708
 20
3.949970025011828
 30
0.0
 11
-0.1577726274870332
 21
0.2732702068512088
 31
0.0
210
0.0
220
0.0
230
1.0
 40
0.5762805860735071
 41
2.357120036805724
 42
3.926065270500235
  0
LINE
  5
4B
330
2B
100
AcDbEntity
  8
1_0
  6
Continuous
 62
     7
100
AcDbLine
 10
14.05203298193357
 20
3.820791594128272
 30
0.0
 11
14.05203306695548
 21
13.97925697735714
 31
0.0
  0
ELLIPSE
  5
4C
330
2B
100
AcDbEntity
  8
1_0
  6
Continuous
 62
     7
100
AcDbEllipse
 10
13.82911537730702
 20
14.10748141892367
 30
0.0
 11
-0.1574803149606173
 21
0.2727639067037677
 31
0.0
210
0.0
220
0.0
230
1.0
 40
0.5784219378350837
 41
3.927916810012538
 42
5.496861150852929
  0
LINE
  5
4D
330
2B
100
AcDbEntity
  8
1_0
  6
Continuous
 62
     7
100
AcDbLine
 10
10.25481387385775
 20
16.4285084143932
 30
0.0
 11
13.82952859833514
 21
14.36464602191203
 31
0.0
  0
LINE
  5
4E
330
2B
100
AcDbEntity
  8
1_0
  6
Continuous
 62
     7
100
AcDbLine
 10
10.25481387385775
 20
16.2999262756646
 30
0.0
 11
10.25481387385775
 21
16.4285084143932
 31
0.0
  0
LINE
  5
4F
330
2B
100
AcDbEntity
  8
1_0
  6
Continuous
 62
     7
100
AcDbLine
 10
13.82952260304596
 20
14.23606722859351
 30
0.0
 11
10.25481387385775
 21
16.2999262756646
 31
0.0
  0
ELLIPSE
  5
50
330
2B
100
AcDbEntity
  8
1_0
  6
Continuous
 62
     7
100
AcDbEllipse
 10
13.82961180714926
 20
14.10776803282807
 30
0.0
 11
0.0785363571746556
 21
-0.1360289608678345
 31
0.0
210
0.0
220
0.0
230
1.0
 40
0.5773409567908593
 41
0.7846021369936891
 42
2.356990536264472
  0
LINE
  5
51
330
2B
100
AcDbEntity
  8
1_0
  6
Continuous
 62
     7
100
AcDbLine
 10
13.94067756791676
 20
3.885089340452153
 30
0.0
 11
13.94067756791676
 21
14.04354118444756
 31
0.0
  0
ELLIPSE
  5
52
330
2B
100
AcDbEntity
  8
1_0
  6
Continuous
 62
     7
100
AcDbEllipse
 10
13.8296118071534
 20
3.949112007361248
 30
0.0
 11
-0.0785344570357465
 21
0.1360300578966596
 31
0.0
210
0.0
220
0.0
230
1.0
 40
0.5773502691519085
 41
2.355406528559766
 42
3.927794927820623
  0
ELLIPSE
  5
53
330
2B
100
AcDbEntity
  8
1_0
  6
Continuous
 62
     7
100
AcDbEllipse
 10
15.53400492847089
 20
15.09179986022659
 30
0.0
 11
0.1574803149606167
 21
-0.2727639067037675
 31
0.0
210
0.0
220
0.0
230
0.9999999999999998
 40
0.5784219378350765
 41
0.7863241563287186
 42
2.355268497168876
  0
LINE
  5
54
330
2B
100
AcDbEntity
  8
1_0
  6
Continuous
 62
     7
100
AcDbLine
 10
15.75692253309624
 20
4.982464709505339
 30
0.0
 11
15.75692261812911
 21
14.96357541863795
 31
0.0
  0
ELLIPSE
  5
55
330
2B
100
AcDbEntity
  8
1_0
  6
Continuous
 62
     7
100
AcDbEllipse
 10
15.53400492847095
 20
5.111643140423409
 30
0.0
 11
-0.157772627487032
 21
0.2732702068512085
 31
0.0
210
0.0
220
0.0
230
1.0
 40
0.5762805860735078
 41
3.184589725616198
 42
3.926065270369091
  0
LINE
  5
56
330
2B
100
AcDbEntity
  8
1_0
  6
Continuous
 62
     7
100
AcDbLine
 10
15.53441814951205
 20
15.34896446319859
 30
0.0
 11
7.224588860104506
 21
20.14664664036619
 31
0.0
  0
ELLIPSE
  5
57
330
2B
100
AcDbEntity
  8
1_0
  6
Continuous
 62
     7
100
AcDbEllipse
 10
11.3795033998395
 20
10.37871878720389
 30
0.0
 11
-0.5905511811023115
 21
1.02286465013913
 31
0.0
210
0.0
220
0.0
230
1.0
 40
0.5773502691896592
 41
1.736061568135837
 42
1.976769936452635
  0
ELLIPSE
  5
58
330
2B
100
AcDbEntity
  8
1_0
  6
Continuous
 62
     7
100
AcDbEllipse
 10
11.3795033998395
 20
10.37871878720389
 30
0.0
 11
-0.5905511811023115
 21
1.02286465013913
 31
0.0
210
0.0
220
0.0
230
1.0
 40
0.5773502691896592
 41
0.3217268036847516
 42
0.5863012625513817
  0
LINE
  5
59
330
2B
100
AcDbEntity
  8
1_0
  6
Continuous
 62
     7
100
AcDbLine
 10
8.940820170235504
 20
17.18714303289289
 30
0.0
 11
9.385705641185117
 21
17.42185512875133
 31
0.0
  0
LINE
  5
5A
330
2B
100
AcDbEntity
  8
1_0
  6
Continuous
 62
     7
100
AcDbLine
 10
10.69969934480736
 20
16.66322051025164
 30
0.0
 11
9.385705641185117
 21
17.42185512875133
 31
0.0
  0
LINE
  5
5B
330
2B
100
AcDbEntity
  8
1_0
  6
Continuous
 62
     7
100
AcDbLine
 10
10.69969934480736
 20
16.66322051025164
 30
0.0
 11
10.25481387385775
 21
16.4285084143932
 31
0.0
  0
LINE
  5
5C
330
2B
100
AcDbEntity
  8
1_0
  6
Continuous
 62
     7
100
AcDbLine
 10
15.53441814951205
 20
15.34896446319859
 30
0.0
 11
13.82952859833514
 21
14.36464602191203
 31
0.0
  0
LINE
  5
5D
330
2B
100
AcDbEntity
  8
1_0
  6
Continuous
 62
     7
100
AcDbLine
 10
14.05203306695548
 20
13.97925697735714
 30
0.0
 11
15.75692261812911
 21
14.96357541863795
 31
0.0
  0
LINE
  5
5E
330
2B
100
AcDbEntity
  8
1_0
  6
Continuous
 62
     7
100
AcDbLine
 10
15.75692253309624
 20
4.982464709505339
 30
0.0
 11
14.05203298193357
 21
3.820791594128272
 31
0.0
  0
LINE
  5
5F
330
2B
100
AcDbEntity
  8
1_0
  6
Continuous
 62
     7
100
AcDbLine
 10
6.99269147065487
 20
14.93949262663836
 30
0.0
 11
6.992691470654869
 21
15.0779287311456
 31
0.0
  0
ELLIPSE
  5
60
330
2B
100
AcDbEntity
  8
1_0
  6
Continuous
 62
     7
100
AcDbEllipse
 10
11.15679260261539
 20
10.25013664847513
 30
0.0
 11
0.5905511811023114
 21
-1.02286465013913
 31
0.0
210
0.0
220
0.0
230
1.0
 40
0.5773502691896586
 41
3.069201498170011
 42
3.277858502724785
  0
ELLIPSE
  5
61
330
2B
100
AcDbEntity
  8
1_0
  6
Continuous
 62
     7
100
AcDbEllipse
 10
11.15679260261539
 20
10.25013664847513
 30
0.0
 11
0.5905511811023114
 21
-1.02286465013913
 31
0.0
210
0.0
220
0.0
230
1.0
 40
0.5773502691896586
 41
5.259272515151289
 42
5.44013881317251
  0
LINE
  5
62
330
2B
100
AcDbEntity
  8
1_0
  6
Continuous
 62
     7
100
AcDbLine
 10
13.82932215119264
 20
3.834324505515164
 30
0.0
 11
13.94067797460395
 21
3.885081770368276
 31
0.0
  0
LINE
  5
63
330
2B
100
AcDbEntity
  8
1_0
  6
Continuous
 62
     7
100
AcDbLine
 10
13.94067797460293
 20
14.04354785656705
 30
0.0
 11
13.80496282078835
 21
13.98168732914592
 31
0.0
  0
LINE
  5
64
330
2B
100
AcDbEntity
  8
1_0
  6
Continuous
 62
     7
100
AcDbLine
 10
13.70809822134808
 20
14.14946173665836
 30
0.0
 11
13.82952858679953
 21
14.23606424347367
 31
0.0
  0
LINE
  5
65
330
2B
100
AcDbEntity
  8
1_0
  6
Continuous
 62
     7
100
AcDbLine
 10
5.076130666094911
 20
14.61801774050187
 30
0.0
 11
5.076130666094912
 21
14.65089951784701
 31
0.0
  0
LINE
  5
66
330
2B
100
AcDbEntity
  8
1_0
  6
Continuous
 62
     7
100
AcDbLine
 10
5.009317426927706
 20
14.56654349384227
 30
0.0
 11
5.009317426927706
 21
14.55640157196054
 31
0.0
  0
LINE
  5
67
330
2B
100
AcDbEntity
  8
1_0
  6
Continuous
 62
     7
100
AcDbLine
 10
9.385705641185117
 20
17.42185512875133
 30
0.0
 11
9.385705641185117
 21
17.10795446741581
 31
0.0
  0
LINE
  5
68
330
2B
100
AcDbEntity
  8
1_0
  6
Continuous
 62
     7
100
AcDbLine
 10
10.25481387385775
 20
16.2999262756646
 30
0.0
 11
10.15517941069843
 21
16.22886812106131
 31
0.0
  0
LINE
  5
69
330
2B
100
AcDbEntity
  8
1_0
  6
Continuous
 62
     7
100
AcDbLine
 10
5.366105082398377
 20
19.12242465219825
 30
0.0
 11
5.266469716409202
 21
19.05136585681425
 31
0.0
  0
LINE
  5
6A
330
2B
100
AcDbEntity
  8
1_0
  6
Continuous
 62
     7
100
AcDbLine
 10
5.254772971478184
 20
19.05811897523657
 30
0.0
 11
5.254955192994008
 21
19.05825223363136
 31
0.0
  0
LINE
  5
6B
330
2B
100
AcDbEntity
  8
1_0
  6
Continuous
 62
     7
100
AcDbLine
 10
9.702871906172882
 20
6.663548842772791
 30
0.0
 11
9.731514800613082
 21
6.647011859957372
 31
0.0
  0
LINE
  5
6C
330
2B
100
AcDbEntity
  8
1_0
  6
Continuous
 62
     7
100
AcDbLine
 10
11.09539346088275
 20
8.592260553227246
 30
0.0
 11
10.96508127768027
 21
8.514375367498075
 31
0.0
  0
LINE
  5
6D
330
2B
100
AcDbEntity
  8
1_0
  6
Continuous
 62
     7
100
AcDbLine
 10
11.01120903872648
 20
8.018560538644232
 30
0.0
 11
10.84770179398554
 21
7.920835277569252
 31
0.0
  0
LINE
  5
6E
330
2B
100
AcDbEntity
  8
1_0
  6
Continuous
 62
     7
100
AcDbLine
 10
8.020471313216036
 20
14.58417959413654
 30
0.0
 11
8.018192331168965
 21
14.58286382323819
 31
0.0
  0
LINE
  5
6F
330
2B
100
AcDbEntity
  8
1_0
  6
Continuous
 62
     7
100
AcDbLine
 10
7.074144168450967
 20
20.16593079922291
 30
0.0
 11
5.215660964029089
 21
19.27028969497431
 31
0.0
  0
LINE
  5
70
330
2B
100
AcDbEntity
  8
1_0
  6
Continuous
 62
     7
100
AcDbLine
 10
13.99351129259693
 20
3.680860528473237
 30
0.0
 11
15.6984008437608
 21
4.842533643884816
 31
0.0
  0
LINE
  5
71
330
2B
100
AcDbEntity
  8
1_0
  6
Continuous
 62
     7
100
AcDbLine
 10
13.90134168821418
 20
3.809781933339354
 30
0.0
 11
13.90137530488172
 21
3.809795360749001
 31
0.0
  0
LINE
  5
73
330
2B
100
AcDbEntity
  8
1
  6
Continuous
 62
     7
100
AcDbLine
 10
12.25122287526013
 20
2.931690654392696
 30
0.0
 11
13.82932215249092
 21
3.692209437305213
 31
0.0
  0
LINE
  5
74
330
2B
100
AcDbEntity
  8
1
  6
Continuous
 62
     7
100
AcDbLine
 10
13.82932215249092
 20
3.692209437305213
 30
0.0
 11
13.82932205968917
 21
13.85067471696957
 31
0.0
  0
LINE
  5
75
330
2B
100
AcDbEntity
  8
1
  6
Continuous
 62
     7
100
AcDbLine
 10
13.82932205968917
 20
13.85067471696957
 30
0.0
 11
12.25122330306808
 21
12.93955935757592
 31
0.0
  0
LINE
  5
76
330
2B
100
AcDbEntity
  8
1
  6
Continuous
 62
     7
100
AcDbLine
 10
12.25122330306808
 20
12.93955935757592
 30
0.0
 11
12.25122287526012
 21
2.931690654392696
 31
0.0
  0
ELLIPSE
  5
77
330
2B
100
AcDbEntity
  8
1
  6
Continuous
 62
     7
100
AcDbEllipse
 10
13.60640458008302
 20
13.97889928019497
 30
0.0
 11
0.1574803149606157
 21
-0.272763906703769
 31
0.0
210
0.0
220
0.0
230
1.0
 40
0.5784219378350806
 41
0.7863241548937415
 42
2.355268498732307
  0
ELLIPSE
  5
78
330
2B
100
AcDbEntity
  8
1
  6
Continuous
 62
     7
100
AcDbEllipse
 10
13.60640458008378
 20
3.821387886281656
 30
0.0
 11
-0.1577726274870339
 21
0.2732702068512101
 31
0.0
210
0.0
220
0.0
230
1.0
 40
0.5762805860735043
 41
3.098595581563388
 42
3.926065272479112
  0
LINE
  5
79
330
2B
100
AcDbEntity
  8
1
  6
Continuous
 62
     7
100
AcDbLine
 10
10.01539976684541
 20
16.30956993607134
 30
0.0
 11
13.60681759073455
 21
14.23606376209432
 31
0.0
  0
LINE
  5
7A
330
2B
100
AcDbEntity
  8
1
  6
Continuous
 62
     7
100
AcDbLine
 10
8.734812682806781
 20
17.04891723376172
 30
0.0
 11
10.01539976684541
 21
16.30956993607135
 31
0.0
  0
LINE
  5
7B
330
2B
100
AcDbEntity
  8
1
  6
Continuous
 62
     7
100
AcDbLine
 10
5.143394648737651
 20
19.12242327592726
 30
0.0
 11
8.734812682806781
 21
17.04891723376172
 31
0.0
  0
LINE
  5
7C
330
2B
100
AcDbEntity
  8
1
  6
Continuous
 62
     7
100
AcDbLine
 10
3.695716945748992
 20
18.13600890369427
 30
0.0
 11
5.143394648737651
 21
19.12242327592726
 31
0.0
  0
LINE
  5
7D
330
2B
100
AcDbEntity
  8
1
  6
Continuous
 62
     7
100
AcDbLine
 10
3.695716945748992
 20
18.13600890369427
 30
0.0
 11
12.0287186781946
 21
13.32494761617883
 31
0.0
  0
LINE
  5
7E
330
2B
100
AcDbEntity
  8
1
  6
Continuous
 62
     7
100
AcDbLine
 10
13.60681759073455
 20
14.23606376209432
 30
0.0
 11
12.0287186781946
 21
13.32494761617883
 31
0.0
  0
ELLIPSE
  5
7F
330
2B
100
AcDbEntity
  8
1
  6
Continuous
 62
     7
100
AcDbEllipse
 10
12.03830937635275
 20
13.07355909220643
 30
0.0
 11
-0.1574803149625717
 21
0.2727639067020784
 31
0.0
210
0.0
220
0.0
230
0.9999999999999998
 40
0.5266012251621908
 41
3.927918314950744
 42
5.496859912327177
  0
ELLIPSE
  5
80
330
2B
100
AcDbEntity
  8
1
  6
Continuous
 62
     7
100
AcDbEllipse
 10
12.03830937635274
 20
13.07355909220643
 30
0.0
 11
0.1574803149603743
 21
0.2727639067033474
 31
0.0
210
0.0
220
0.0
230
1.0
 40
0.5773502691896565
 41
0.8284749473617242
 42
2.356194223938528
  0
ELLIPSE
  5
81
330
2B
100
AcDbEntity
  8
1
  6
Continuous
 62
     7
100
AcDbEllipse
 10
12.03830937635274
 20
13.07355922914832
 30
0.0
 11
0.314960629921636
 21
0.0000000000000002
 31
0.0
210
0.0
220
0.0
230
1.0
 40
0.5773502691895605
 41
3.926990816987292
 42
5.454712203090655
  0
ELLIPSE
  5
82
330
2B
100
AcDbEntity
  8
1
  6
Continuous
 62
     7
100
AcDbEllipse
 10
12.03830937635275
 20
3.065690704572033
 30
0.0
 11
0.31496062992129
 21
0.0000000000494728
 31
0.0
210
0.0
220
0.0
230
1.0
 40
0.5773502690754093
 41
3.926991083219077
 42
5.454710359753558
  0
LINE
  5
83
330
2B
100
AcDbEntity
  8
1
  6
Continuous
 62
     7
100
AcDbLine
 10
11.81559857912864
 20
12.94497702194862
 30
0.0
 11
11.81559863844154
 21
2.93710853159895
 31
0.0
  0
LINE
  5
84
330
2B
100
AcDbEntity
  8
1
  6
Continuous
 62
     7
100
AcDbLine
 10
3.482596513542701
 20
7.748169483090413
 30
0.0
 11
3.482596454229796
 21
17.75603797344518
 31
0.0
  0
LINE
  5
85
330
2B
100
AcDbEntity
  8
1
  6
Continuous
 62
     7
100
AcDbLine
 10
11.81559863844154
 20
2.93710853159895
 30
0.0
 11
3.482596513542702
 21
7.748169483090413
 31
0.0
  0
LINE
  5
86
330
2B
100
AcDbEntity
  8
1
  6
Continuous
 62
     7
100
AcDbLine
 10
3.482596454229797
 20
17.75603797344518
 30
0.0
 11
11.81559857912864
 21
12.94497702194862
 31
0.0
  0
ELLIPSE
  5
87
330
2B
100
AcDbEntity
  8
1
  6
Continuous
 62
     7
100
AcDbEllipse
 10
7.649097546337149
 20
10.79661073807366
 30
0.0
 11
2.648649001491972
 21
-4.587594642001196
 31
0.0
210
0.0
220
0.0
230
1.0
 40
0.5773502691896585
 41
0.0
 42
6.283185307179586
  0
ELLIPSE
  5
88
330
2B
100
AcDbEntity
  8
1
  6
Continuous
 62
     7
100
AcDbEllipse
 10
3.705307192141005
 20
17.88462014641826
 30
0.0
 11
0.157480314960871
 21
0.2727639067042067
 31
0.0
210
0.0
220
0.0
230
1.0
 40
0.5773502691896573
 41
0.8284731035916916
 42
2.356194490192197
  0
ELLIPSE
  5
89
330
2B
100
AcDbEntity
  8
1
  6
Continuous
 62
     7
100
AcDbEllipse
 10
3.705307310766807
 20
17.88462007792962
 30
0.0
 11
0.3149606299211584
 21
-0.0000000000021957
 31
0.0
210
0.0
220
0.0
230
1.0
 40
0.5773502691938242
 41
3.141592653601867
 42
3.926990550668736
  0
ELLIPSE
  5
8A
330
2B
100
AcDbEntity
  8
1
  6
Continuous
 62
     7
100
AcDbEllipse
 10
3.705307310766808
 20
17.88462007792962
 30
0.0
 11
0.1773505842569731
 21
-0.260282478595935
 31
0.0
210
0.0
220
0.0
230
0.9999999999999998
 40
0.5762805860885702
 41
2.314124916014178
 42
3.141592653589789
  0
ELLIPSE
  5
8B
330
2B
100
AcDbEntity
  8
1
  6
Continuous
 62
     7
100
AcDbEllipse
 10
5.143807869561419
 20
18.86478176905798
 30
0.0
 11
0.157772627487032
 21
-0.2732702068512113
 31
0.0
210
0.0
220
0.0
230
1.0
 40
0.5762805860735064
 41
2.357120481651808
 42
3.184589725617102
  0
ELLIPSE
  5
8C
330
2B
100
AcDbEntity
  8
1
  6
Continuous
 62
     7
100
AcDbEllipse
 10
3.70530731076681
 20
7.876751690295225
 30
0.0
 11
0.1574803149605119
 21
0.2727639067037999
 31
0.0
210
0.0
220
0.0
230
1.0
 40
0.577350269189866
 41
2.35619475646564
 42
3.141592653589793
  0
ELLIPSE
  5
8D
330
2B
100
AcDbEntity
  8
1
  6
Continuous
 62
     7
100
AcDbEllipse
 10
3.70530731076681
 20
7.876751553343122
 30
0.0
 11
0.3149606299217656
 21
0.0000000000000014
 31
0.0
210
0.0
220
0.0
230
1.0
 40
0.5773502691895592
 41
3.141590861976886
 42
3.926990816987195
  0
LINE
  5
8E
330
2B
100
AcDbEntity
  8
1
  6
Continuous
 62
     7
100
AcDbLine
 10
4.983974474140135
 20
14.53170701609869
 30
0.0
 11
4.983974474140135
 21
14.52757736738192
 31
0.0
  0
LINE
  5
8F
330
2B
100
AcDbEntity
  8
1
  6
Continuous
 62
     7
100
AcDbLine
 10
10.01539976684541
 20
16.30956993607134
 30
0.0
 11
10.40392078405291
 21
16.5200876805882
 31
0.0
  0
LINE
  5
90
330
2B
100
AcDbEntity
  8
1
  6
Continuous
 62
     7
100
AcDbLine
 10
10.40327949391866
 20
16.50683571236713
 30
0.0
 11
10.40392078405291
 21
16.5200876805882
 31
0.0
  0
LINE
  5
91
330
2B
100
AcDbEntity
  8
1
  6
Continuous
 62
     7
100
AcDbLine
 10
9.123333700014285
 20
17.25943497827858
 30
0.0
 11
10.40392078405291
 21
16.5200876805882
 31
0.0
  0
LINE
  5
92
330
2B
100
AcDbEntity
  8
1
  6
Continuous
 62
     7
100
AcDbLine
 10
8.734812682806781
 20
17.04891723376172
 30
0.0
 11
9.123333700014285
 21
17.25943497827858
 31
0.0
  0
LINE
  5
93
330
2B
100
AcDbEntity
  8
1
  6
Continuous
 62
     7
100
AcDbLine
 10
11.06475792813504
 20
8.818149190244364
 30
0.0
 11
11.1204848431371
 21
8.785975240866745
 31
0.0
  0
LINE
  5
94
330
2B
100
AcDbEntity
  8
1
  6
Continuous
 62
     7
100
AcDbLine
 10
11.06475792813504
 20
8.818149190244364
 30
0.0
 11
10.9868091491066
 21
8.773145441689297
 31
0.0
  0
LINE
  5
95
330
2B
100
AcDbEntity
  8
1
  6
Continuous
 62
     7
100
AcDbLine
 10
10.9868091491066
 20
8.773145441689297
 30
0.0
 11
10.98309954881034
 21
8.771137860879854
 31
0.0
  0
LINE
  5
96
330
2B
100
AcDbEntity
  8
1
  6
Continuous
 62
     7
100
AcDbLine
 10
10.98309955781338
 20
9.092593189442029
 30
0.0
 11
10.98680914910676
 21
9.094600788511138
 31
0.0
  0
LINE
  5
97
330
2B
100
AcDbEntity
  8
1
  6
Continuous
 62
     7
100
AcDbLine
 10
10.98680914910676
 20
9.094600788511138
 30
0.0
 11
11.06475792813504
 21
9.13960453706632
 31
0.0
  0
LINE
  5
98
330
2B
100
AcDbEntity
  8
1
  6
Continuous
 62
     7
100
AcDbLine
 10
11.1204848431371
 20
9.107430587688703
 30
0.0
 11
11.06475792813504
 21
9.13960453706632
 31
0.0
  0
LINE
  5
99
330
2B
100
AcDbEntity
  8
1
  6
Continuous
 62
     7
100
AcDbLine
 10
11.11557733914732
 20
9.213129647421336
 30
0.0
 11
10.97140659646782
 21
9.296366664516606
 31
0.0
  0
ELLIPSE
  5
9A
330
2B
100
AcDbEntity
  8
1
  6
Continuous
 62
     7
100
AcDbEllipse
 10
7.782724024670007
 20
10.87376002130999
 30
0.0
 11
-2.362204724409093
 21
4.091458600556403
 31
0.0
210
0.0
220
0.0
230
1.0
 40
0.5773502691896706
 41
3.968669549409916
 42
5.456108411359652
  0
LINE
  5
9B
330
2B
100
AcDbEntity
  8
1
  6
Continuous
 62
     7
100
AcDbLine
 10
8.011002591824846
 20
14.42393681148863
 30
0.0
 11
8.011002591824846
 21
14.59041084567918
 31
0.0
  0
LINE
  5
9C
330
2B
100
AcDbEntity
  8
1
  6
Continuous
 62
     7
100
AcDbLine
 10
7.921918272935203
 20
14.58316249991469
 30
0.0
 11
7.92191827293514
 21
14.64751039866983
 31
0.0
  0
LINE
  5
9D
330
2B
100
AcDbEntity
  8
1
  6
Continuous
 62
     7
100
AcDbLine
 10
7.921918272935203
 20
14.58316249991469
 30
0.0
 11
7.843969493906767
 21
14.53815875135969
 31
0.0
  0
LINE
  5
9E
330
2B
100
AcDbEntity
  8
1
  6
Continuous
 62
     7
100
AcDbLine
 10
7.843969493906767
 20
14.53815875135969
 30
0.0
 11
7.840376066465586
 21
14.53594995059664
 31
0.0
  0
LINE
  5
9F
330
2B
100
AcDbEntity
  8
1
  6
Continuous
 62
     7
100
AcDbLine
 10
7.561987574596717
 20
14.69667761145716
 30
0.0
 11
7.565580997376621
 21
14.69888642477057
 31
0.0
  0
LINE
  5
A0
330
2B
100
AcDbEntity
  8
1
  6
Continuous
 62
     7
100
AcDbLine
 10
7.565580997376621
 20
14.69888642477057
 30
0.0
 11
7.643529776405064
 21
14.74389017332564
 31
0.0
  0
LINE
  5
A1
330
2B
100
AcDbEntity
  8
1
  6
Continuous
 62
     7
100
AcDbLine
 10
7.643529776405003
 20
14.80823807208078
 30
0.0
 11
7.643529776405065
 21
14.74389017332564
 31
0.0
  0
ELLIPSE
  5
A2
330
2B
100
AcDbEntity
  8
1
  6
Continuous
 62
     7
100
AcDbEllipse
 10
7.701181826371588
 20
10.82668161117208
 30
0.0
 11
2.322752573749066
 21
-4.023125462191426
 31
0.0
210
0.0
220
0.0
230
1.0
 40
0.5773502685994684
 41
2.398581559673648
 42
3.281320079085711
  0
ELLIPSE
  5
A3
330
2B
100
AcDbEntity
  8
1
  6
Continuous
 62
     7
100
AcDbEllipse
 10
7.649097546349419
 20
10.79661073808074
 30
0.0
 11
-2.283463691959567
 21
3.955075131713236
 31
0.0
210
0.0
220
0.0
230
0.9999999999999998
 40
0.5773502691896585
 41
0.0
 42
6.283185307179586
  0
ELLIPSE
  5
A4
330
2B
100
AcDbEntity
  8
1
  6
Continuous
 62
     7
100
AcDbEllipse
 10
7.871808343559778
 20
10.92519287680157
 30
0.0
 11
-2.362204724409245
 21
4.091458600556521
 31
0.0
210
0.0
220
0.0
230
1.0
 40
0.577350269189659
 41
2.891466608377154
 42
3.122735355176289
  0
ELLIPSE
  5
A5
330
2B
100
AcDbEntity
  8
1
  6
Continuous
 62
     7
100
AcDbEllipse
 10
7.782724024670011
 20
10.87376002130999
 30
0.0
 11
-2.362204724409223
 21
4.091458600556325
 31
0.0
210
0.0
220
0.0
230
1.0
 40
0.5773502691896693
 41
2.708803646779232
 42
3.885312084564738
  0
ELLIPSE
  5
A6
330
2B
100
AcDbEntity
  8
1
  6
Continuous
 62
     7
100
AcDbEllipse
 10
7.701181826371585
 20
10.82668161117209
 30
0.0
 11
-2.322752570170938
 21
4.023125485792802
 31
0.0
210
0.0
220
0.0
230
1.0
 40
0.5773502705636641
 41
3.004033165058626
 42
3.884603748407435
  0
ELLIPSE
  5
A7
330
2B
100
AcDbEntity
  8
1
  6
Continuous
 62
     7
100
AcDbEllipse
 10
7.704775245848927
 20
10.82875627263375
 30
0.0
 11
2.322834645448593
 21
-4.023267623753179
 31
0.0
210
0.0
220
0.0
230
0.9999999999999998
 40
0.5773502691899355
 41
0.7430125920065213
 42
0.8277837348521664
  0
ELLIPSE
  5
A8
330
2B
100
AcDbEntity
  8
1
  6
Continuous
 62
     7
100
AcDbEllipse
 10
7.701181826371588
 20
10.82668161117209
 30
0.0
 11
-2.322752587488818
 21
4.02312547579432
 31
0.0
210
0.0
220
0.0
230
1.0
 40
0.5773502676939409
 41
3.969377885664741
 42
5.455400072724961
  0
ELLIPSE
  5
A9
330
2B
100
AcDbEntity
  8
1
  6
Continuous
 62
     7
100
AcDbEllipse
 10
7.704775245641634
 20
10.82875627230628
 30
0.0
 11
-2.322834645669051
 21
4.023267624356482
 31
0.0
210
0.0
220
0.0
230
1.0
 40
0.5773502691896834
 41
5.4554015724224
 42
5.540172715260361
  0
ELLIPSE
  5
AA
330
2B
100
AcDbEntity
  8
1
  6
Continuous
 62
     7
100
AcDbEllipse
 10
7.782724024668792
 20
10.87376002155855
 30
0.0
 11
-2.322834645668621
 21
4.023267623617025
 31
0.0
210
0.0
220
0.0
230
1.0
 40
0.5773502691898939
 41
5.455401572326492
 42
5.540172715172239
  0
ELLIPSE
  5
AB
330
2B
100
AcDbEntity
  8
1
  6
Continuous
 62
     7
100
AcDbEllipse
 10
7.782724025067293
 20
10.873760021082
 30
0.0
 11
2.362204723988004
 21
-4.091458600314092
 31
0.0
210
0.0
220
0.0
230
1.0
 40
0.5773502691894836
 41
0.7437194310318282
 42
0.8270768958819388
  0
ELLIPSE
  5
AC
330
2B
100
AcDbEntity
  8
1
  6
Continuous
 62
     7
100
AcDbEllipse
 10
7.782724024865643
 20
10.87376002119883
 30
0.0
 11
2.322834645462208
 21
-4.023267623761721
 31
0.0
210
0.0
220
0.0
230
1.0
 40
0.5773502691894152
 41
0.7430125920043226
 42
0.8277837348498241
  0
ELLIPSE
  5
AD
330
2B
100
AcDbEntity
  8
1
  6
Continuous
 62
     7
100
AcDbEllipse
 10
12.03830937635274
 20
3.065690704572031
 30
0.0
 11
-0.1367359465366372
 21
0.2837313506208741
 31
0.0
210
0.0
220
0.0
230
0.9999999999999998
 40
0.5762805861441703
 41
3.141592653589793
 42
3.969060657843561
  0
ELLIPSE
  5
AE
330
2B
100
AcDbEntity
  8
1
  6
Continuous
 62
     7
100
AcDbEllipse
 10
12.03830949497855
 20
3.065690636083393
 30
0.0
 11
0.1574803149608833
 21
0.2727639067042352
 31
0.0
210
0.0
220
0.0
230
1.0
 40
0.5773502691896583
 41
2.356194490192298
 42
3.141594575435249
  0
ELLIPSE
  5
AF
330
2B
100
AcDbEntity
  8
1
  6
Continuous
 62
     7
100
AcDbEllipse
 10
7.871808343559778
 20
10.92519287680157
 30
0.0
 11
2.362204724409247
 21
-4.091458600556521
 31
0.0
210
0.0
220
0.0
230
1.0
 40
0.5773502691896592
 41
3.160449952004091
 42
3.400248969516252
  0
LINE
  5
B0
330
2B
100
AcDbEntity
  8
1
  6
Continuous
 62
     7
100
AcDbLine
 10
9.622084310971519
 20
6.640914967483737
 30
0.0
 11
9.63870264784413
 21
6.63132036621685
 31
0.0
  0
ELLIPSE
  5
B1
330
2B
100
AcDbEntity
  8
1
  6
Continuous
 62
     7
100
AcDbEllipse
 10
7.703927276329421
 20
10.82826669744429
 30
0.0
 11
2.478283297507637
 21
-4.292512586833059
 31
0.0
210
0.0
220
0.0
230
1.0
 40
0.577350269189659
 41
0.0
 42
6.283185307179586
  0
ELLIPSE
  5
B2
330
2B
100
AcDbEntity
  8
1
  6
Continuous
 62
     7
100
AcDbEllipse
 10
7.782724024671517
 20
10.87376002118718
 30
0.0
 11
-2.36220472440965
 21
4.091458600686776
 31
0.0
210
0.0
220
0.0
230
0.9999999999999998
 40
0.5773502691893833
 41
5.45610841137633
 42
5.53946587622017
  0
ELLIPSE
  5
B3
330
2B
100
AcDbEntity
  8
1
  6
Continuous
 62
     7
100
AcDbEllipse
 10
7.782724024670011
 20
10.87376002130999
 30
0.0
 11
2.362204724409088
 21
-4.091458600556403
 31
0.0
210
0.0
220
0.0
230
1.0
 40
0.577350269189649
 41
2.39787322261502
 42
3.575013964207912
  0
ARC
  5
B4
330
2B
100
AcDbEntity
  8
1
  6
Continuous
 62
     7
100
AcDbCircle
 10
3.705307310766809
 20
17.88462007792962
 30
0.0
 40
0.3149606299212606
100
AcDbArc
 50
124.2696309614078
 51
180.0
  0
LINE
  5
B5
330
2B
100
AcDbEntity
  8
1
  6
Continuous
 62
     7
100
AcDbLine
 10
4.97941195427157
 20
19.13389126559657
 30
0.0
 11
3.527956726561253
 21
18.14490255656049
 31
0.0
  0
ARC
  5
B6
330
2B
100
AcDbEntity
  8
1
  6
Continuous
 62
     7
100
AcDbCircle
 10
3.70530731076681
 20
7.876751690295225
 30
0.0
 40
0.3149606299212822
100
AcDbArc
 50
180.0000373702778
 51
240.0000000000027
  0
SPLINE
  5
B7
330
2B
100
AcDbEntity
  8
1
  6
Continuous
 62
     7
100
AcDbSpline
210
0.0
220
0.0
230
1.0
 70
     8
 71
     3
 72
    71
 73
    67
 74
     0
 42
0.0000000001
 43
0.0000000001
 40
0.0
 40
0.0
 40
0.0
 40
0.0
 40
0.0108258944546762
 40
0.0263632297713991
 40
0.0419284673197269
 40
0.0575247570690478
 40
0.0731529326204978
 40
0.0888118283862403
 40
0.1044987626753717
 40
0.1202100786788494
 40
0.1359416524726833
 40
0.1516893090146007
 40
0.1674491211734193
 40
0.1832175940035131
 40
0.1989917529818569
 40
0.2147691614243016
 40
0.2305478823501336
 40
0.2463260508896015
 40
0.2621026992866655
 40
0.2778771608771187
 40
0.2936490106080621
 40
0.3094180135342495
 40
0.32518408175501
 40
0.3409472393510451
 40
0.3567075944312407
 40
0.37246531723977
 40
0.3882206232796328
 40
0.4039737604996493
 40
0.4197249997177421
 40
0.4354746275853149
 40
0.4512229415205712
 40
0.4669702461454351
 40
0.4827168508493772
 40
0.4984630681737945
 40
0.5142092127639537
 40
0.5299555557337574
 40
0.545702353646891
 40
0.5614499240013801
 40
0.5771985841494996
 40
0.5929486502903072
 40
0.6087004359278615
 40
0.6244542495332201
 40
0.6402103911050996
 40
0.6559691472534393
 40
0.6717307843406272
 40
0.6874955391059739
 40
0.7032636060719115
 40
0.7190351208907053
 40
0.7348101386515759
 40
0.7505886060556901
 40
0.7663703263262683
 40
0.7821549158286584
 40
0.7979417517481709
 40
0.8137299109821903
 40
0.8295176585827521
 40
0.8453030275316367
 40
0.8610836022164514
 40
0.8768564017261114
 40
0.8926178822834966
 40
0.9083640079075772
 40
0.9240904168440456
 40
0.9397927065989041
 40
0.9554668451986879
 40
0.9711096888570754
 40
0.9867195494656732
 40
1.0
 40
1.0
 40
1.0
 40
1.0
 10
5.071724184216265
 20
14.61781907944966
 30
0.0
 10
5.048648826776002
 20
14.59579912650691
 30
0.0
 10
5.001221184883948
 20
14.55018337470166
 30
0.0
 10
4.924607594230643
 20
14.46212193166685
 30
0.0
 10
4.84694184231001
 20
14.36032224493912
 30
0.0
 10
4.774531519901455
 20
14.25042174236614
 30
0.0
 10
4.708184157821152
 20
14.13380672554551
 30
0.0
 10
4.647873564615265
 20
14.01038710520339
 30
0.0
 10
4.593784120597486
 20
13.88049738162604
 30
0.0
 10
4.546026406977679
 20
13.74438415500683
 30
0.0
 10
4.504710830982858
 20
13.60234096380471
 30
0.0
 10
4.469926175368527
 20
13.45466858651724
 30
0.0
 10
4.44174474261294
 20
13.30168224229804
 30
0.0
 10
4.420221171020984
 20
13.1437066037115
 30
0.0
 10
4.405393472051092
 20
12.98107467794441
 30
0.0
 10
4.397283728133454
 20
12.81412629892143
 30
0.0
 10
4.395898937650115
 20
12.64320861398639
 30
0.0
 10
4.401231494733677
 20
12.46867370396507
 30
0.0
 10
4.413259902905547
 20
12.29087806913012
 30
0.0
 10
4.431949580187201
 20
12.11018077255816
 30
0.0
 10
4.457253221311886
 20
11.92694502304938
 30
0.0
 10
4.48911106298186
 20
11.74153781549173
 30
0.0
 10
4.527451092931316
 20
11.55432952506092
 30
0.0
 10
4.572189225099419
 20
11.36569344759557
 30
0.0
 10
4.62322945938027
 20
11.17600528556911
 30
0.0
 10
4.680464040350103
 20
10.98564258351439
 30
0.0
 10
4.743773625705149
 20
10.79498411906572
 30
0.0
 10
4.813027472061547
 20
10.60440925676861
 30
0.0
 10
4.888083643310432
 20
10.41429727197263
 30
0.0
 10
4.968789244826949
 20
10.22502665183287
 30
0.0
 10
5.054980685409087
 20
10.03697437993732
 30
0.0
 10
5.146483967769973
 20
9.850515210497222
 30
0.0
 10
5.243115007641018
 20
9.666020937463191
 30
0.0
 10
5.344679980962201
 20
9.483859663440608
 30
0.0
 10
5.450975597137262
 20
9.304395243491891
 30
0.0
 10
5.561789439349199
 20
9.127986608281617
 30
0.0
 10
5.676900509494096
 20
8.954986806952383
 30
0.0
 10
5.796079801781962
 20
8.785742150103367
 30
0.0
 10
5.919090838103814
 20
8.620591500536603
 30
0.0
 10
6.045690013278216
 20
8.459865849133791
 30
0.0
 10
6.17562709739214
 20
8.303887690680461
 30
0.0
 10
6.308645750223774
 20
8.152970428393265
 30
0.0
 10
6.444484043622806
 20
8.00741781041421
 30
0.0
 10
6.582874986898044
 20
7.8675234012825
 30
0.0
 10
6.723547049166158
 20
7.733570091076414
 30
0.0
 10
6.866224671282062
 20
7.605829644337437
 30
0.0
 10
7.010628758381222
 20
7.484562289926649
 30
0.0
 10
7.156477142245281
 20
7.370016351426862
 30
0.0
 10
7.303485000763968
 20
7.262427915354813
 30
0.0
 10
7.45136521986846
 20
7.162020530977776
 30
0.0
 10
7.599828682063607
 20
7.069004930619307
 30
0.0
 10
7.74858446498671
 20
6.983578752582999
 30
0.0
 10
7.89733993725742
 20
6.905926240309764
 30
0.0
 10
8.045799348373622
 20
6.8362185326059
 30
0.0
 10
8.193664394219135
 20
6.774612506116428
 30
0.0
 10
8.340634194344257
 20
6.721249824456971
 30
0.0
 10
8.486406634363977
 20
6.676255587668594
 30
0.0
 10
8.630676848508535
 20
6.63973747760536
 30
0.0
 10
8.773139924978075
 20
6.611784423393526
 30
0.0
 10
8.913481359276076
 20
6.592464417084412
 30
0.0
 10
9.051416373426844
 20
6.58182407128323
 30
0.0
 10
9.18655040103397
 20
6.579881424788479
 30
0.0
 10
9.318909228519087
 20
6.586644954556152
 30
0.0
 10
9.446980292050191
 20
6.602037892346721
 30
0.0
 10
9.568738527549333
 20
6.624995679525451
 30
0.0
 10
9.638042553370661
 20
6.644512215040632
 30
0.0
 10
9.675687546133369
 20
6.655303474449751
 30
0.0
  0
LINE
  5
B8
330
2B
100
AcDbEntity
  8
1
  6
Continuous
 62
     7
100
AcDbLine
 10
12.1750453229027
 20
2.781959353957434
 30
0.0
 11
13.75726228284089
 21
3.544462099092933
 31
0.0
  0
ARC
  5
B9
330
2B
100
AcDbEntity
  8
1
  6
Continuous
 62
     7
100
AcDbCircle
 10
12.03830937635275
 20
3.065690704572031
 30
0.0
 40
0.3149606299212823
100
AcDbArc
 50
240.0000373771506
 51
295.7303690380707
  0
LINE
  5
BA
330
2B
100
AcDbEntity
  8
1
  6
Continuous
 62
     7
100
AcDbLine
 10
3.547826995806194
 20
7.603987783591458
 30
0.0
 11
11.88082918001793
 21
2.792926729379625
 31
0.0
  0
LINE
  5
BB
330
2B
100
AcDbEntity
  8
1
  6
Continuous
 62
     7
100
AcDbLine
 10
3.390346680845548
 20
17.88462007792962
 30
0.0
 11
3.390346680845549
 21
7.876751553343122
 31
0.0
  0
ENDBLK
  5
BD
330
2B
100
AcDbEntity
  8
0
100
AcDbBlockEnd
  0
BLOCK
  5
D1
330
C6
100
AcDbEntity
  8
0
100
AcDbBlockBegin
  2
*D1
 70
     1
 10
0.0
 20
0.0
 30
0.0
  3
*D1
  1

  0
LINE
  5
C7
330
C6
100
AcDbEntity
  8
0
 62
     0
370
    -2
100
AcDbLine
 10
12.08907689865211
 20
2.750936012013813
 30
0.0
 11
16.96915617404372
 21
2.749947545138065
 31
0.0
  0
LINE
  5
C8
330
C6
100
AcDbEntity
  8
0
 62
     0
370
    -2
100
AcDbLine
 10
12.0912186769125
 20
13.32493495671676
 30
0.0
 11
16.97129795230412
 21
13.32394648984102
 31
0.0
  0
LINE
  5
C9
330
C6
100
AcDbEntity
  8
0
 62
     0
370
    -2
100
AcDbLine
 10
16.78919263698691
 20
2.92998400069638
 30
0.0
 11
16.79019060761486
 21
7.856983476740293
 31
0.0
  0
LINE
  5
CA
330
C6
100
AcDbEntity
  8
0
 62
     0
370
    -2
100
AcDbLine
 10
16.7912614967458
 20
13.14398295278421
 30
0.0
 11
16.79026352611786
 21
8.216983476740292
 31
0.0
  0
SOLID
  5
CB
330
C6
100
AcDbEntity
  8
0
 62
     0
100
AcDbTrace
 10
16.75919263760231
 20
2.929990077238171
 30
0.0
 11
16.81919263637151
 21
2.929977924154588
 31
0.0
 12
16.78915617773616
 22
2.749984004388816
 32
0.0
 13
16.78915617773616
 23
2.749984004388816
 33
0.0
  0
SOLID
  5
CC
330
C6
100
AcDbEntity
  8
0
 62
     0
100
AcDbTrace
 10
16.76126149736121
 20
13.143989029326
 30
0.0
 11
16.8212614961304
 21
13.14397687624241
 31
0.0
 12
16.79129795599655
 22
13.32398294909177
 32
0.0
 13
16.79129795599655
 23
13.32398294909177
 33
0.0
  0
MTEXT
  5
CD
330
C6
100
AcDbEntity
  8
0
 62
     0
100
AcDbMText
 10
16.79022706686636
 20
8.036983476740292
 30
0.0
 40
0.18
 41
0.0
 71
     5
 72
     1
  1
\A1;10.5740
 73
     1
 44
1.0
1001
ACAD
1000
MTEXTBEGIN
1070
    73
1070
     1
1070
    44
1040
1.0
1070
    74
1070
     0
1000
MTEXTEND
  0
POINT
  5
CE
330
C6
100
AcDbEntity
  8
Defpoints
 62
     0
100
AcDbPoint
 10
12.0265768999342
 20
2.750948671475879
 30
0.0
  0
POINT
  5
CF
330
C6
100
AcDbEntity
  8
Defpoints
 62
     0
100
AcDbPoint
 10
12.0287186781946
 20
13.32494761617883
 30
0.0
  0
POINT
  5
D0
330
C6
100
AcDbEntity
  8
Defpoints
 62
     0
100
AcDbPoint
 10
16.79129795599655
 20
13.32398294909177
 30
0.0
  0
ENDBLK
  5
D2
330
C6
100
AcDbEntity
  8
0
100
AcDbBlockEnd
  0
BLOCK
  5
DF
330
D4
100
AcDbEntity
  8
0
100
AcDbBlockBegin
  2
*D2
 70
     1
 10
0.0
 20
0.0
 30
0.0
  3
*D2
  1

  0
LINE
  5
1CC
330
D4
100
AcDbEntity
  8
0
 62
     3
370
    -2
100
AcDbLine
 10
0.7978339364808777
 20
88.75899018981076
 30
0.0
 11
-11.42144445122591
 21
88.75899018981076
 31
0.0
  0
LINE
  5
1CD
330
D4
100
AcDbEntity
  8
0
 62
     3
370
    -2
100
AcDbLine
 10
-0.3681052876153568
 20
5.726326119694996
 30
0.0
 11
-11.42144445122592
 21
5.726326119694999
 31
0.0
  0
LINE
  5
1CE
330
D4
100
AcDbEntity
  8
0
 62
     3
370
    -2
100
AcDbLine
 10
-11.24144445122591
 20
83.75899018981076
 30
0.0
 11
-11.24144445122592
 21
50.74265815475288
 31
0.0
  0
LINE
  5
1CF
330
D4
100
AcDbEntity
  8
0
 62
     3
370
    -2
100
AcDbLine
 10
-11.24144445122593
 20
10.726326119695
 30
0.0
 11
-11.24144445122592
 21
43.74265815475288
 31
0.0
  0
SOLID
  5
1D0
330
D4
100
AcDbEntity
  8
0
 62
     3
100
AcDbTrace
 10
-12.07477778455924
 20
83.75899018981076
 30
0.0
 11
-10.40811111789258
 21
83.75899018981076
 31
0.0
 12
-11.24144445122591
 22
88.75899018981076
 32
0.0
 13
-11.24144445122591
 23
88.75899018981076
 33
0.0
  0
SOLID
  5
1D1
330
D4
100
AcDbEntity
  8
0
 62
     3
100
AcDbTrace
 10
-12.07477778455926
 20
10.726326119695
 30
0.0
 11
-10.40811111789259
 21
10.726326119695
 31
0.0
 12
-11.24144445122593
 22
5.726326119694999
 32
0.0
 13
-11.24144445122593
 23
5.726326119694999
 33
0.0
  0
MTEXT
  5
1D2
330
D4
100
AcDbEntity
  8
0
 62
     3
100
AcDbMText
 10
-11.24144445122592
 20
47.24265815475288
 30
0.0
 40
3.0
 41
0.0
 71
     5
 72
     1
  1
\A1;83mm
 73
     1
 44
1.0
1001
ACAD
1000
MTEXTBEGIN
1070
    73
1070
     1
1070
    44
1040
1.0
1070
    74
1070
     0
1000
MTEXTEND
  0
POINT
  5
1D3
330
D4
100
AcDbEntity
  8
Defpoints
 62
     0
100
AcDbPoint
 10
5.797833936480877
 20
88.75899018981076
 30
0.0
  0
POINT
  5
1D4
330
D4
100
AcDbEntity
  8
Defpoints
 62
     0
100
AcDbPoint
 10
4.631894712384642
 20
5.726326119694995
 30
0.0
  0
POINT
  5
1D5
330
D4
100
AcDbEntity
  8
Defpoints
 62
     0
100
AcDbPoint
 10
-11.24144445122593
 20
5.726326119694999
 30
0.0
  0
ENDBLK
  5
E0
330
D4
100
AcDbEntity
  8
0
100
AcDbBlockEnd
  0
BLOCK
  5
ED
330
E2
100
AcDbEntity
  8
0
100
AcDbBlockBegin
  2
*D3
 70
     1
 10
0.0
 20
0.0
 30
0.0
  3
*D3
  1

  0
LINE
  5
1FE
330
E2
100
AcDbEntity
  8
0
 62
     3
370
    -2
100
AcDbLine
 10
0.9178590714302915
 20
3.530853578630501
 30
0.0
 11
-6.055064722576168
 21
-8.7254650683498
 31
0.0
  0
LINE
  5
1FF
330
E2
100
AcDbEntity
  8
0
 62
     3
370
    -2
100
AcDbLine
 10
70.63314181947394
 20
-36.13190062036311
 30
0.0
 11
63.66021802546748
 21
-48.3882192673434
 31
0.0
  0
LINE
  5
200
330
E2
100
AcDbEntity
  8
0
 62
     3
370
    -2
100
AcDbLine
 10
-1.620159976471813
 20
-11.04150045084746
 30
0.0
 11
21.54430909738461
 21
-24.22034168637754
 31
0.0
  0
LINE
  5
201
330
E2
100
AcDbEntity
  8
0
 62
     3
370
    -2
100
AcDbLine
 10
59.40333238724104
 20
-45.75927943100983
 30
0.0
 11
33.84821963238947
 21
-31.22034168637754
 31
0.0
  0
SOLID
  5
202
330
E2
100
AcDbEntity
  8
0
 62
     3
100
AcDbTrace
 10
-1.208078708235878
 20
-10.31718458548656
 30
0.0
 11
-2.03224124470775
 21
-11.76581631620836
 31
0.0
 12
-5.966055168637205
 22
-8.569012841431844
 32
0.0
 13
-5.966055168637205
 23
-8.569012841431844
 33
0.0
  0
SOLID
  5
203
330
E2
100
AcDbEntity
  8
0
 62
     3
100
AcDbTrace
 10
59.81541365547697
 20
-45.03496356564894
 30
0.0
 11
58.9912511190051
 21
-46.48359529637073
 31
0.0
 12
63.74922757940645
 22
-48.23176704042544
 32
0.0
 13
63.74922757940645
 23
-48.23176704042544
 33
0.0
  0
MTEXT
  5
204
330
E2
100
AcDbEntity
  8
0
 62
     3
100
AcDbMText
 10
27.69626436488704
 20
-27.72034168637754
 30
0.0
 40
3.0
 41
0.0
 71
     5
 72
     1
  1
\A1;80mm
 73
     1
 44
1.0
1001
ACAD
1000
MTEXTBEGIN
1070
    73
1070
     1
1070
    44
1040
1.0
1070
    74
1070
     0
1000
MTEXTEND
  0
POINT
  5
205
330
E2
100
AcDbEntity
  8
Defpoints
 62
     0
100
AcDbPoint
 10
3.390346680845905
 20
7.876748770795892
 30
0.0
  0
POINT
  5
206
330
E2
100
AcDbEntity
  8
Defpoints
 62
     0
100
AcDbPoint
 10
73.10562942888954
 20
-31.78600542819773
 30
0.0
  0
POINT
  5
207
330
E2
100
AcDbEntity
  8
Defpoints
 62
     0
100
AcDbPoint
 10
63.74922757940645
 20
-48.23176704042544
 30
0.0
  0
ENDBLK
  5
EE
330
E2
100
AcDbEntity
  8
0
100
AcDbBlockEnd
  0
BLOCK
  5
10F
330
104
100
AcDbEntity
  8
0
100
AcDbBlockBegin
  2
*D4
 70
     1
 10
0.0
 20
0.0
 30
0.0
  3
*D4
  1

  0
LINE
  5
1F4
330
104
100
AcDbEntity
  8
0
 62
     3
370
    -2
100
AcDbLine
 10
75.26468869192618
 20
-36.54999514911386
 30
0.0
 11
80.09087507735211
 21
-44.40583016561913
 31
0.0
  0
LINE
  5
1F5
330
104
100
AcDbEntity
  8
0
 62
     3
370
    -2
100
AcDbLine
 10
103.5035996990451
 20
-19.2015850112391
 30
0.0
 11
108.329786084471
 21
-27.05742002774437
 31
0.0
  0
LINE
  5
1F6
330
104
100
AcDbEntity
  8
0
 62
     3
370
    -2
100
AcDbLine
 10
84.25692218312214
 20
-41.63518917254458
 30
0.0
 11
88.41897646896024
 21
-39.07825541725154
 31
0.0
  0
LINE
  5
1F7
330
104
100
AcDbEntity
  8
0
 62
     3
370
    -2
100
AcDbLine
 10
103.9752954441186
 20
-29.5213216619585
 30
0.0
 11
99.81324115828053
 21
-32.07825541725154
 31
0.0
  0
SOLID
  5
1F8
330
104
100
AcDbEntity
  8
0
 62
     3
100
AcDbTrace
 10
83.82071029751475
 20
-40.92514436036771
 30
0.0
 11
84.69313406872954
 21
-42.34523398472144
 31
0.0
 12
79.99665331006091
 22
-44.25246048618892
 32
0.0
 13
79.99665331006091
 23
-44.25246048618892
 33
0.0
  0
SOLID
  5
1F9
330
104
100
AcDbEntity
  8
0
 62
     3
100
AcDbTrace
 10
103.5390835585112
 20
-28.81127684978162
 30
0.0
 11
104.411507329726
 21
-30.23136647413536
 31
0.0
 12
108.2355643171798
 22
-26.90405034831416
 32
0.0
 13
108.2355643171798
 23
-26.90405034831416
 33
0.0
  0
MTEXT
  5
1FA
330
104
100
AcDbEntity
  8
0
 62
     3
100
AcDbMText
 10
94.11610881362038
 20
-35.57825541725153
 30
0.0
 40
3.0
 41
0.0
 71
     5
 72
     1
  1
\A1;33mm
 73
     1
 44
1.0
1001
ACAD
1000
MTEXTBEGIN
1070
    73
1070
     1
1070
    44
1040
1.0
1070
    74
1070
     0
1000
MTEXTEND
  0
POINT
  5
1FB
330
104
100
AcDbEntity
  8
Defpoints
 62
     0
100
AcDbPoint
 10
72.64741737828185
 20
-32.28972627605263
 30
0.0
  0
POINT
  5
1FC
330
104
100
AcDbEntity
  8
Defpoints
 62
     0
100
AcDbPoint
 10
100.8863283854008
 20
-14.94131613817787
 30
0.0
  0
POINT
  5
1FD
330
104
100
AcDbEntity
  8
Defpoints
 62
     0
100
AcDbPoint
 10
108.2355643171798
 20
-26.90405034831416
 30
0.0
  0
ENDBLK
  5
110
330
104
100
AcDbEntity
  8
0
100
AcDbBlockEnd
  0
ENDSEC
  0
SECTION
  2
ENTITIES
  0
INSERT
  5
2C
330
1F
100
AcDbEntity
  8
Default
100
AcDbBlockReference
  2
SE
 10
-23.3385701929113
 20
-54.2222208902492
 30
0.0
 41
7.883830000267308
 42
7.883830000267308
 43
7.883830000267308
  0
ENDSEC
  0
SECTION
  2
OBJECTS
  0
DICTIONARY
  5
C
330
0
100
AcDbDictionary
281
     1
  3
ACAD_COLOR
350
C1
  3
ACAD_GROUP
350
D
  3
ACAD_LAYOUT
350
1A
  3
ACAD_MATERIAL
350
C0
  3
ACAD_MLINESTYLE
350
17
  3
ACAD_PLOTSETTINGS
350
19
  3
ACAD_PLOTSTYLENAME
350
E
  3
ACDBHEADERROUNDTRIPXREC
350
214
  3
AcDbVariableDictionary
350
208
  0
DICTIONARY
  5
C1
102
{ACAD_REACTORS
330
C
102
}
330
C
100
AcDbDictionary
281
     1
  0
DICTIONARY
  5
D
102
{ACAD_REACTORS
330
C
102
}
330
C
100
AcDbDictionary
281
     1
  0
DICTIONARY
  5
1A
102
{ACAD_REACTORS
330
C
102
}
330
C
100
AcDbDictionary
281
     1
  3
Layout1
350
1E
  3
Model
350
22
  0
DICTIONARY
  5
C0
102
{ACAD_REACTORS
330
C
102
}
330
C
100
AcDbDictionary
281
     1
  0
DICTIONARY
  5
17
102
{ACAD_REACTORS
330
C
102
}
330
C
100
AcDbDictionary
281
     1
  3
Standard
350
18
  0
DICTIONARY
  5
19
102
{ACAD_REACTORS
330
C
102
}
330
C
100
AcDbDictionary
281
     1
  0
ACDBDICTIONARYWDFLT
  5
E
102
{ACAD_REACTORS
330
C
102
}
330
C
100
AcDbDictionary
281
     1
  3
Normal
350
F
100
AcDbDictionaryWithDefault
340
F
  0
DICTIONARY
  5
214
102
{ACAD_REACTORS
330
C
102
}
330
C
100
AcDbDictionary
281
     1
  3
COLORDICT
350
216
  3
MATERIALDICT
350
215
  0
DICTIONARY
  5
208
102
{ACAD_REACTORS
330
C
102
}
330
C
100
AcDbDictionary
281
     1
  3
DIMASSOC
350
209
  3
PROJECTNAME
350
20A
  0
LAYOUT
  5
1E
102
{ACAD_XDICTIONARY
360
217
102
}
102
{ACAD_REACTORS
330
1A
102
}
330
1A
100
AcDbPlotSettings
  1

  2

  4

  6

 40
0.0
 41
0.0
 42
0.0
 43
0.0
 44
0.0
 45
0.0
 46
0.0
 47
0.0
 48
0.0
 49
0.0
140
0.0
141
0.0
142
1.0
143
1.0
 70
   688
 72
     0
 73
     0
 74
     5
  7

 75
    16
147
1.0
148
0.0
149
0.0
100
AcDbLayout
  1
Layout1
 70
     1
 71
     1
 10
0.0
 20
0.0
 11
33.99993199999999
 21
21.999956
 12
0.0
 22
0.0
 32
0.0
 14
0.0
 24
0.0
 34
0.0
 15
33.99993199999999
 25
21.999956
 35
0.0
146
0.0
 13
0.0
 23
0.0
 33
0.0
 16
1.0
 26
0.0
 36
0.0
 17
0.0
 27
1.0
 37
0.0
 76
     0
330
1B
  0
LAYOUT
  5
22
102
{ACAD_XDICTIONARY
360
219
102
}
102
{ACAD_REACTORS
330
1A
102
}
330
1A
100
AcDbPlotSettings
  1

  2

  4

  6

 40
0.0
 41
0.0
 42
0.0
 43
0.0
 44
0.0
 45
0.0
 46
0.0
 47
0.0
 48
0.0
 49
0.0
140
0.0
141
0.0
142
1.0
143
1.0
 70
  1712
 72
     0
 73
     0
 74
     0
  7

 75
     0
147
1.0
148
0.0
149
0.0
100
AcDbLayout
  1
Model
 70
     1
 71
     0
 10
0.0
 20
0.0
 11
33.99993199999999
 21
21.999956
 12
0.0
 22
0.0
 32
0.0
 14
0.0
 24
0.0
 34
0.0
 15
33.99993199999999
 25
21.999956
 35
0.0
146
0.0
 13
0.0
 23
0.0
 33
0.0
 16
1.0
 26
0.0
 36
0.0
 17
0.0
 27
1.0
 37
0.0
 76
     0
330
1F
  0
MLINESTYLE
  5
18
102
{ACAD_REACTORS
330
17
102
}
330
17
100
AcDbMlineStyle
  2
STANDARD
 70
     0
  3

 62
   256
 51
90.0
 52
90.0
 71
     2
 49
0.5
 62
   256
  6
BYLAYER
 49
-0.5
 62
   256
  6
BYLAYER
  0
ACDBPLACEHOLDER
  5
F
102
{ACAD_REACTORS
330
E
102
}
330
E
  0
XRECORD
  5
216
102
{ACAD_REACTORS
330
214
102
}
330
214
100
AcDbXrecord
280
     1
340
C1
  0
XRECORD
  5
215
102
{ACAD_REACTORS
330
214
102
}
330
214
100
AcDbXrecord
280
     1
340
C0
  0
DICTIONARYVAR
  5
209
102
{ACAD_REACTORS
330
208
102
}
330
208
100
DictionaryVariables
280
     0
  1
1
  0
DICTIONARYVAR
  5
20A
102
{ACAD_REACTORS
330
208
102
}
330
208
100
DictionaryVariables
280
     0
  1

  0
DICTIONARY
  5
217
330
1E
100
AcDbDictionary
280
     1
281
     1
  3
ACAD_XREC_ROUNDTRIP
360
218
  0
DICTIONARY
  5
219
330
22
100
AcDbDictionary
280
     1
281
     1
  3
ACAD_XREC_ROUNDTRIP
360
21A
  0
XRECORD
  5
218
102
{ACAD_REACTORS
330
217
102
}
330
217
100
AcDbXrecord
280
     1
102
SHADEPLOT
 70
     0
102
SHADEPLOTRESLEVEL
 70
     2
102
SHADEPLOTCUSTOMDPI
 70
   300
  0
XRECORD
  5
21A
102
{ACAD_REACTORS
330
219
102
}
330
219
100
AcDbXrecord
280
     1
102
SHADEPLOT
 70
     0
102
SHADEPLOTRESLEVEL
 70
     2
102
SHADEPLOTCUSTOMDPI
 70
   300
  0
ENDSEC
  0
EOF
